Song name
# A B C D E F G H I J K L M N O P Q R S T U V W X Y Z

Misc Unsigned Bands - Zeldocracy - Run Sashy Run tab

Tuning: EADGBE

---------------------|
---------------------|
---------------------|
---------------------|
---------------------|
-7777-2222-4444-0000-|

---------------------|
---------------------|
---------------------|
-9999-4444-6666-2222-|
-9999-4444-6666-2222-|
-7777-2222-4444-0000-|

---------------------|
---------------------|
---------------------|
-9999-4444-6666-2222-|
-9999-4444-6666-2222-|
-7777-2222-4444-0000-|
P.M..................

--------------------|
--------------------|
--------------------|
-7--------6---------|
-7--------6---------|
-5--------4---------|

-----------------|
-----------------|
-----------------|
-2-2-444-6-6-6-6-|
-2-2-444-6-6-6-6-|
-0-0-222-4-4-4-4-|
Tap to rate this tab
 
# A B C D E F G H I J K L M N O P Q R S T U V W X Y Z