Guitaretab - guitar tabs
Song name
# A B C D E F G H I J K L M N O P Q R S T U V W X Y Z

Misc Unsigned Bands - Were Waiting For October - An Apology Letter tab

the guitar on this song switches a lot
and the strumming pattern is really different
so it isnt exactly for beginers

This song is from the "211" cd by Were waiting for october and is copywrited

(the song begins like this)


Intro
|-----------------------------------------------------------------------|
|----3---3---3---3---------------------3---3---3---3--------------------|
|--------------------2----2---2---0---------------------2----2---2---0--|
|-----------------------------------------------------------------------|
|--2---2---2---2---------------------2---2---2---2----------------------|
|------------------3----3---3---3---------------------3----3---3---3----|

|---------------------------------------------------------------0--------|
|----3---3---3---3---------------------3---3---3---3------------3--------|
|--------------------2----2---2---0---------------------2----2--2--------|
|---------------------------------------------------------------0--------|
|--2---2---2---2---------------------2---2---2---2--------------0--------|
|------------------3----3---3---3---------------------3----3----3--------|


pre verse
|-------------------0-0-0-0-0--|
|----3---3----------3-3-3-3-3--|
|-----2---2---------2-2-2-2-2--|
|------0---0--------0-0-0-0-0--|
|-2-----------------0-0-0-0-0--|
|------------0-3----3-3-3-3-3--|


Verse 1
|----------------------------------------------2-2-3-xxx-2-2-2-3-2-2-|
|--3-3-xxxx-3-3-3-3-3-3--3-3-xxxx-3-3-3-3-3-3--3-3-3-xxx-3-3-3-3-3-3-|
|--2-2-xxxx-2-2-2-2-2-2--2-2-xxxx-2-2-2-2-2-2--2-2-2-xxx-2-2-2-2-2-2-|
|--0-0-xxxx-0-0-0-0-0-0--0-0-xxxx-0-0-0-0-0-0--0-0-0-xxx-0-0-0-0-0-0-|
|--2-2-xxxx-2-2-2-2-0-0--2-2-xxxx-2-2-2-2-0-0------------------------|
|--------------------------------------------------------------------|

|------------------------|
|-3-3-3-xxx-3-3-3-3-3-3--|
|-2-2-2-xxx-2-2-2-2-2-2--|Repeat Verse 4x
|-0-0-0-xxx-0-0-0-0-0-0--|
|-0-0-0-xxx-0-0-0-0-0-0--|
|-3-3-3-xxx-3-3-3-0-3-3--|


Chorus (strum each chord 16 times before moving on to the next one)
|---|---|-2-|-2-|
|-3-|-3-|-3-|-3-|
|-2-|-2-|-2-|-2-|Repeat 2x
|-0-|-0-|-0-|-2-|
|-2-|-0-|---|---|
|---|-3-|---|---|


pre verse
|-------------------0-0-0-0-0--|
|----3---3----------3-3-3-3-3--|
|-----2---2---------2-2-2-2-2--|
|------0---0--------0-0-0-0-0--|
|-2-----------------0-0-0-0-0--|
|------------0-3----3-3-3-3-3--|


Verse 2
|----------------------------------------------2-2-3-xxx-2-2-2-3-2-2-|
|--3-3-xxxx-3-3-3-3-3-3--3-3-xxxx-3-3-3-3-3-3--3-3-3-xxx-3-3-3-3-3-3-|
|--2-2-xxxx-2-2-2-2-2-2--2-2-xxxx-2-2-2-2-2-2--2-2-2-xxx-2-2-2-2-2-2-|
|--0-0-xxxx-0-0-0-0-0-0--0-0-xxxx-0-0-0-0-0-0--0-0-0-xxx-0-0-0-0-0-0-|
|--2-2-xxxx-2-2-2-2-0-0--2-2-xxxx-2-2-2-2-0-0------------------------|
|--------------------------------------------------------------------|

|------------------------|
|-3-3-3-xxx-3-3-3-3-3-3--|
|-2-2-2-xxx-2-2-2-2-2-2--|Repeat Verse 4x
|-0-0-0-xxx-0-0-0-0-0-0--|
|-0-0-0-xxx-0-0-0-0-0-0--|
|-3-3-3-xxx-3-3-3-0-3-3--|


Chorus (strum each chord 16 times before moving on to the next one)
|---|---|-2-|-2-|
|-3-|-3-|-3-|-3-|
|-2-|-2-|-2-|-2-|Repeat 2x
|-0-|-0-|-0-|-2-|
|-2-|-0-|---|---|
|---|-3-|---|---|


Bridge 1
|---------------------------------|
|---------------------------------|
|---------------------------------|
|-4-4-xxx-4-4-4-4/-7-7-7----------|repeat 7x
|-2-2-xxx-2-2-2-2/-5-5-5--5-5-5-5-|
|-------------------------3-3-2-2-|
[ Tab from: http://www.guitaretab.com/m/misc-unsigned-bands/82854.html ]
on the 8th x play this
|------------------------------------------|
|------------------------------------------|
|------------------------------------------|
|-4-4-xxx-4-4-4-4/-7-----------------------|
|-2-2-xxx-2-2-2-2/-5(let this chord ring)--|
|------------------------------------------|


Bridge 2
|-----------------------------|
|----3---3--------3----3h5p3--|
|-----2---2------2-2--2-------|
|------0---0------------------|repeat 6x
|-2---------------------------|
|------------0-3-----3--------|


Bridge 3 (repeat this 6x)
|-----------------------------------------------------------------------|
|----3---3---3---3---------------------3---3---3---3--------------------|
|--------------------2----2---2---0---------------------2----2---2---0--|
|-----------------------------------------------------------------------|
|--2---2---2---2---------------------2---2---2---2----------------------|
|------------------3----3---3---3---------------------3----3---3---3----|


Outro
|------------------------------0-------0--------0-------0---|
|----3---3--------3----3---------3-------3--------3-------3-|
|-----2---2------2-2--2-2----2-------2-------2--------2-----|
|------0---0---------------0-------0-------2--------2-------|repeat 5x
|-2---------------------------------------------------------|
|------------0-3-----3--------------------------------------|


Last Chord (just strum once)
|--0--|
|--3--|
|--2--|
|--0--|
|--2--|
|-----|

(Intro)
(Pre Verse)
(Verse 1)
Tell me am i wrong to feel this way after one little date.
Three weeks have passed by now and I feel as if i will need something to compensate.
I pour my words into this pen, in high hopes that I may see you again.
And I may be too dramatic and I bite my tounge, so I dont say these words.

(Chorus)
Cause I know that I might die a little if I am alone,
because you are the one that makes me feel at home.
And now all I feel is regret deep inside these bones,
and you know I'm sorry Ms.Nathania but please dont leave me on my own.

(Pre Verse)
(Verse 2)
Take this envelope and place it near your heart and hold it tight,
so we do not feel as if we are apart for the rest of this starry night.
And feel these words racing through your lungs and your head.
Please dont think of me now, just think about what the letter has said.

(Chorus)
Cause I know that I might die a little if I am alone,
because you are the one that makes me feel at home.
And now all I feel is regret deep inside these bones,
and you know I'm sorry Ms.Nathania but please dont leave me on my own.

(Bridge 1)
I know I came on too strong but it wasnt strong enough, to lift that heavy heart.
And I know it seems wrong and I try to make it tough, to forget me from the start.
Just keep ignoring all my calls but I will find a way, to get you back with me to stay 
more than one date.

(Bridge 2)
I still hold your heart inside these hands.  I still hold your heart inside these hands.
And if you want it back, you are going to have to find a reason....

(Bridge 3)
Tell me whats the meaning of a heartbreak?
Tell me what is the puropose in being alone?
Tell me whats the meaning of a heartbreak?
Tell me what is the puropose in being alone?

(Outro)
Cause I know that I just might die a little without by my side and I feel as if the time 
shared together we cannot let it pass us by because were invincible darling theres no 
so lets share one last sunset just one last hug for goodbye.

(Last Chord)

-----------------------------------------------------------------------------

Thats it enjoy....
listen to "We're Waiting for October" at

www.purevolume.com/werewaitingforoctober
www.myspace.com/cantrellstreet
Related for Were Waiting For October - An Apology Letter tab
Advertisement will be closed in 10 seconds