Song name
# A B C D E F G H I J K L M N O P Q R S T U V W X Y Z

Misc Unsigned Bands - Aurora Stripe - Stardom tab

Tabbed by: Adam - thisletter@msn.com
www.myspace.com/aurorastripe

Standard tuning: EADGBe

Quality tune, quality band.

Intro:

e-------------------------------------------------------|
B-------------------------------------------------------|
G-------------------------------------------------------|
D-----10-0---8-0-----6-5-3h5p3--------------------------| X 4
A---8------6-----4-4----------6-------------------------|
E-------------------------------------------------------|

Verse:
[repeat throught verse]
e-------------------------------------------------------|
B-------------------------------------------------------|
G--------------8----------------------------------------|
D-----10-11-10---11-10h11p10----10-11-10-8-11-10--------|
A---8-------------------------11-----------------11-8---|
E-------------------------------------------------------|
(verse[Last time])
e-------------------------------------------------------------------|
B-------------------------------------------------------------------|
G--------------8----------------------------------------------------|
D-----10-11-10---11-10h11p10----10-11-10-8-11-10---10--10--10--10---|
A---8-------------------------11-----------------11--11--11--11--11-|
E-------------------------------------------------------------------|

Chorus:

e-------------------------------------------------------------------|
B--xx-xx-x--x-x-x--xx-xx-xx--x-x-x-x-x-x-x-x------------------------|
G--10-10-x--6-6-x--13-13-13--x-x-8-x-x-8-x-x------------------------|
D--10-10-x--6-6-x--13-13-13--x-x-8-x-x-8-x-x------------------------| X 4
A--8--8--x--4-4-x--11-11-11--x-x-6-x-x-6-x-x------------------------|
E-------------------------------------------------------------------|


Bridge:

e---------------------------------------------------------------------|
B--xx-xx-x-x--xx-xx-xx-x-x-xx-x-x-x-x-x-xx-xx-xx-x-x-xx-x-xx-x-xx-xx--|
G--10-10-x-x--10-10-10-x-x-10-x--13-13--10-10-10-x-x-10-x-10-x-10-10--|
D--10-10-x-x--10-10-10-x-x-10-x--13-13--10-10-10-x-x-10-x-10-x-10-10--|
A--8--8--x-x--8--8--8--x-x-8--x--11-11--8--8--8--x-x-8--x-8--x-8--8---|
E---------------------------------------------------------------------|

e--------------------------------------------------------------------------|
B--x--xx-xx--xx-xx-xx-x-x-x--x-xx-xx-xx-x-x--xx-xx-x--xx-xx-xx-x-x-xx-x-xx-|
G--x--13-13--10-10-10-x-x-10-x-10-x-10-10-x--13-13-x--10-10-10-x-x-10-x-10-|
D--x--13-13--10-10-10-x-x-10-x-10-x-10-10-x--13-13-x--10-10-10-x-x-10-x-10-|
A--x--11-11--8--8--8--x-x-8--x-8--x-8--8--x--11-11-x--8--8--8--x-x-8--x-8--|
E--------------------------------------------------------------------------|

e----------------------------|
B--x-xx-x-xx-x-xx-x-xx-x-x---|x~}
G--x-10-x-10-x-10-x-10-x-10--|}
D--x-10-x-10-x-10-x-10-x-10--|} [HOLD]
A--x-8--x-8--x-8--x-8--x-8---|-}
E----------------------------|

Chorus

Song Structure:

Intro
Verse 1
Pre-Chorus (same as verse)
Chorus
Bass solo (sustain last chord of chorus)
Verse 2
Pre-Chorus
Chorus
Bridge
Chorus


Enjoy.
Chorus
Tap to rate this tab
 
# A B C D E F G H I J K L M N O P Q R S T U V W X Y Z