Song name
# A B C D E F G H I J K L M N O P Q R S T U V W X Y Z

Misc Unsigned Bands - No Fixed Address - My Chick tab

Okay, This Song Is Alright, And Itz Very Easy

Song: My Chick
Composed By: No Fixed Adress
Tabbed By: mikey_yorke10@hotmail.com

    Intro x2
e |-----------------------------------------------------------|
B |-----------------------------------------------------------|
G |-7-7-------------------------------------------------------|
D |-7-7--5-5--9-9--5-5-5--9-7---------------------------------|
A |-5-5--5-5--9-9--5-5-5--9-7---------------------------------|
E |------3-3--7-7--3-3-3--7-5---------------------------------|

  Verse 1 x2
e |------------------------------------------------------------------|
B |------------------------------------------------------------------|
G |-7-x8-------------------------------------------------------------|
D |-7----5-x8-9-x8-5-5-5-5-5-5-5-5-----------------------------------|
A |-5----5----9----5-5-5-5-5-5-5-5-----------------------------------|
E |------3----7----3-3-3-3-3-3-3-3-----------------------------------|

   Chorus x4
e |------------------------------------------------------------------|
B |------------------------------------------------------------------|
G |-7-7-7-7----------------------------------------------------------|
D |-7-7-7-7-5-5--7-7-------------------------------------------------|
A |-5-5-5-5-5-5--7-7-------------------------------------------------|
E |---------3-3--5-5-------------------------------------------------|

  Verse 2 x2
e |------------------------------------------------------------------|
B |------------------------------------------------------------------|
G |-7-x8-------------------------------------------------------------|
D |-7----5-x8-9-x8-5-5-5-5-5-5-5-5-----------------------------------|
A |-5----5----9----5-5-5-5-5-5-5-5-----------------------------------|
E |------3----7----3-3-3-3-3-3-3-3-----------------------------------|

  Riff x2
e |------------------------------------------------------------------|
B |------------------------------------------------------------------|
G |-7-x4--9-x4--11-x4--7-7--11--9------------------------------------|
D |-7-----9-----11-----5-5---9--7------------------------------------|
A |-5-----7------9---------------------------------------------------|
E |------------------------------------------------------------------|

  Riff Outro
e |------------------------------------------------------------------|
B |------------------------------------------------------------------|
G |------------------------------------------------------------------|
D |-11-x4--9-x4--7-x5--6-4-------------------------------------------|
A |--9-----7-----5-----4-2----7-7-7--9--7-7-7--9--7-x8---------------|
E |---------------------------5-5-5--7--5-5-5--7--5------------------|

(Chorus)


The End


See, Told You It was Easy. Now Learn away!
Tap to rate this tab
# A B C D E F G H I J K L M N O P Q R S T U V W X Y Z