Song name
# A B C D E F G H I J K L M N O P Q R S T U V W X Y Z

Misc Unsigned Bands - Captain Gnarboots - White Blanket tab

       verse
e:------------------------------------------------------------------|
B:------------------------------------------------------------------|
G:----5-57-5-5----------------5-57-5-----------5---------5-575------| 
D:---7-7----7----5-57-5-5----7-7--------5-5---7----5-5--7-7---7-----|
A:-8-----------7-7-----7---8-----------7-7---8----7-7--8------------|
E:------------8----------------------8-----------8------------------|  
chorus
e:------------------------|
B:------------------------|
G:---5---------5-575------| 
D:--7----5-5--7-7---7-----|
A:-8----7-7--8------------|
E:-----8------------------|  
Tap to rate this tab
# A B C D E F G H I J K L M N O P Q R S T U V W X Y Z