Song name
# A B C D E F G H I J K L M N O P Q R S T U V W X Y Z

Misc Unsigned Bands - Ballroom - Girl On The Floor tab

The girl on the floor by BALLROOM

intro:
e|------------------------------------------------------|
B|------------------------------------------------------|
G|------------------------------------------------------|
D|------------------------------------------------------|
A|----3-3-3-3-------------------------------------------|
E|------------------------------------------------------|

verse:
e|------------------------------------------------------|
B|------------------------------------------------------|
G|------------------------------------------------------|
D|------------------------------------------------------|
A|----3-3-3-3-------------------------------------------|
E|-------------4-4--6-6-6-6-----------------------------|
      "the girl on the floor... is watchin' me" 

the second guitar part:
e|------------------------------------------------------|
B|------4----------3------------------------------------|
G|---------7--3--5--------------------------------------|
D|----5---------------5---------------------------------|
A|------------------------------------------------------|
E|------------------------------------------------------|
 

song tabbed by Fer from ERPE-CITY
Tap to rate this tab
# A B C D E F G H I J K L M N O P Q R S T U V W X Y Z