Guitaretab - guitar tabs
Song name
# A B C D E F G H I J K L M N O P Q R S T U V W X Y Z

Misc Unsigned Bands - Krematory - Land Of The Dead tab

this is an original song i wrote for my band Krematory. enjoy!

Tuning: Standard EADGBE

Tablature:
/=slide
*=palm mute
h=hammer on
p=pull off
[ Tab from: http://www.guitaretab.com/m/misc-unsigned-bands/83065.html ]
Riff 1
E-------------------|
B-------------------|
G---4/5---3/4---4---|
D---4/5---3/4---4---|
A---2/3---1/2---2---|
E-0-----0-----0---0-|
  *     *     *   *
Riff 2
E------------------------------------------------------------|
B------------------------------------------------------------|
G-----4/5-----4------4/5-----4------4/5-----4------4/5-----4-|
D-----4/5-----4------4/5-----4------4/5-----4------4/5-----4-|
A-----2/3-----2------2/3-----2------2/3-----2------2/3-----2-|
E-0-00----0-00---0-00----0-00---0-00----0-00---0-00----0-00--|
  * **    * **   * **    * **   * **    * **   * **    * **
Riff 3
E----------------------------------------------------------------|
B----------------------------------------------------------------|
G-----3---------------3---------------3---------------3----------|
D-----3-2-22-2-22-2---3-222222222-----3-2-22-2-22-2---3-22222222-|
A-----1-2-22-2-22-2---1-222222222-----1-2-22-2-22-2---1-22222222-|
E-0-00--0-00-0-00-0-00--000000000-0-00--0-00-0-00-0-00--00000000-|
  * **  * ** * ** * **  ********* * **  * ** * ** * **  ********
Riff 4
E------|
B------|
G------|
D-2----|
A-2----|
E-0----|
Verse
E-------------------------------------------|
B-------------------------------------------|
G---------------------------------4-5-7-5-4-|
D---------------------------------4-5-7-5-4-|
A-0-0-5-0-7-0-8-0-7-0-5-0-7-0-5-0-2-3-5-3-2-|
E-------------------------------------------|
pre-chorus
E----------------------------------------------------|
B----------------------------------------------------|
G----------------------------------------------------|
D-2------------------5-4-3-2-----------------2-------|
A-2------------------5-4-3-2-----------------2-2p0h3-|
E-0-0000000000000000-3-2-1-0-00000000000000000-------|
    ****************         ****************

at the end of the pre chorus play this
E-------|
B-------|
G-------|
D-2--2--|
A-2--2--|
E-0--0--|
chorus
E----------------------------------------------------------|
B----------------------------------------------------------|
G----------------------------------------------------------|
D------2------2------2----------------------9-9h10-7-9-5-3-|
A------2------2------2----------------------7-7----7-9-5-3-|
E-0000-0-0000-0-0000-0-0000-0-2-3-5-----0-0----------------|
  ****   ****   ****   ****             * *
E----------------------------------------------------------|
B----------------------------------------------------------|
G--------------------------------------------------------3-|
D------2------2------2----------------------9-9h10-7-9-5-3-|
A------2------2------2----------------------7-7----7-9-5---|
E-0000-0-0000-0-0000-0-0000-0-2-3-5-----0-0----------------|
  ****   ****   ****   ****             * *
riff 5
E----------------------------------------|
B----------------------------------------|
G--------------------------------------3-|
D-----9-9h10-7-9-5-3------9-9h10-7-9-5-3-|
A-----7-7----7-9-5-3------7-7----7-9-5---|
E-0-0-----------------0-0----------------|

Order of the tab:

Riff 1 (play 4 times)
Riff 2
Riff 3
Riff 2
Riff 3
Riff 4
Verse  (play 4 times)
pre chorus (play 4 times)
chorus (play 2 times)
Riff 5 (play 4 times)

and thats it. this is my first tab and its totally 100% correct. any more questions 
Krematory email at: mind_freak_66@hotmail.com

sorry to all the soloists out there but i haven't figured one out yet. soon to come.
Related for Krematory - Land Of The Dead tab
Advertisement will be closed in 10 seconds