Song name
# A B C D E F G H I J K L M N O P Q R S T U V W X Y Z

Misc Unsigned Bands - Checkered Stripe - Untitled tab

untitled
c star s

intro guitar 1
e-------------10------------|
b----11-10-11---11-10-11----|
g-10------------------------|   x8
d---------------------------|
a---------------------------|
e---------------------------|

intro guitar 2
e-------------------------|
b-------------------3-----|
g-------3-----5-----3-----|
d-5-----3-----5-----1-----|    x1
a-5-----1-----3-----------|
e-3-----------------------|

verse guitar 1 and 2
e-------------------------|
b-------------------3-----|
g-------3-----5-----3-----|
d-5-----3-----5-----1-----|    x2
a-5-----1-----3-----------|
e-3-----------------------|

chorus guitar 1 and 2
e--------------------------------------------------------------------|
b-------------------------------------------------3-3-3-3-3-3-3-3----|
g-----------------3-3-3-3-3-3-3-3-5-5-5-5-5-5-5-5-3-3-3-3-3-3-3-3----|   x2
d-5-5-5-5-5-5-5-5-3-3-3-3-3-3-3-3-5-5-5-5-5-5-5-5-1-1-1-1-1-1-1-1----|
a-5-5-5-5-5-5-5-5-1-1-1-1-1-1-1-1-3-3-3-3-3-3-3-3--------------------|
e-3-3-3-3-3-3-3-3----------------------------------------------------|


order
intro
verse
chorus
intro
verse
chorus
outro/intro  x16
Tap to rate this tab
# A B C D E F G H I J K L M N O P Q R S T U V W X Y Z