Song name
# A B C D E F G H I J K L M N O P Q R S T U V W X Y Z

Misc Unsigned Bands - Rejected Theory - Biiter-sweet Dream tab

-----------------------------------------------------------------
bitter-sweet dream - Rejected theory
-----------------------------------------------------------------
Tabbed by:Jake Brandquist
Email: lilzerke@yahoo.com

Tuning:standard

ok here's another little guitar peice I've been working on.
idk it's still a work in progress.


e|---------------------------------------------------------------|
B|---------------------------------------------------------------|
G|---------------------------------------------------------------|
D|---------------------------------------------------------------|
A|---0--0--0--0--0--0--0--0--0--0--5--5--5--5--5--3--3--3--3--3--|
E|-3--3--3--3--3--2--2--2--2--2--2--2--2--2--2--1--1--1--1--1----|

e|--------------------------------|
B|--------------------------------|
G|------------------0-------------|  x2
D|------------0-------0-----------|
A|---5---5--5---5--5--------------|
E|------0--0---0--0---------------|

e|--------------------------------------------|
B|--------------------------------------------|
G|------------0---------0---------------------|
D|------0-----------0-----0-------------------|  x2
A|----5--5--5--5--5---5-----5-----------------|
E|--0-----0------0----------------------------|

e|--------------------------------------------|
B|--------------------------------------------|
G|------------0---------0---0-----------------|
D|------0-----------0-----0-------------------|  
A|----5--5--5--5--5---5-----------------------|
E|--0-----0------0----------------------------|

e|--------------------------------------------|
B|--------------------------------------------|
G|--------------------------------------------|
D|-0-0-0--0-0---------------------------------|  x3
A|-5-5-5--5-5----5/7\5/9\5--------------------|
E|--------------------------------------------|

e|--------------------------------------------|
B|--------------------------------------------|
G|--------------------------------------------|
D|-0-0-0--0-0---------------------------------|  
A|-5-5-5--5-5----5/9\7\5----------------------|
E|--------------------------------------------|

REMEMBER!!!! play it slow.

| /  slide up
| \  slide down
| h  hammer-on
| p  pull-off
| ~  vibrato
| +  harmonic
| x  Mute note
Tap to rate this tab
# A B C D E F G H I J K L M N O P Q R S T U V W X Y Z