Song name
# A B C D E F G H I J K L M N O P Q R S T U V W X Y Z

Misc Unsigned Bands - Shtick Nyivan - Gay Catholic tab

-------------------------------------------------------------------------------
			GAY CATHOLIC - Shtick Nyivan
-------------------------------------------------------------------------------
Tabbed by: NoFX_Fan182
Email: brandonf@telusplanet.net

Tuning: Standard

Intro:

e|---------------------------------------------------------------------------|
B|---------------------------------------------------------------------------|
G|-9-x-x-7-x-x---------------------------------------------------------------|
D|-9-x-x-7-x-x-7-x-7-x-7-7---------------------------------------------------|
A|-7-x-x-5-x-x-7-x-7-x-7-7---------------------------------------------------|
E|-------------5-x-5-x-5-5---------------------------------------------------|

Verse:

e|---------------------------------------------------------------------------|
B|---------------------------------------------------------------------------|
G|-9-9-9-7-7-7---------------------------------------------------------------|
D|-9-9-9-7-7-7-7-7-7-7-7-7---------------------------------------------------|
A|-7-7-7-5-5-5-7-7-7-7-7-7---------------------------------------------------|
E|-------------5-5-5-5-5-5---------------------------------------------------|

Chorus:

e|---------------------------------------------------------------------------|
B|---------------------------------------------------------------------------|
G|---------------------------------------------------------------------------|
D|-5-5-5-5-5-5-5-x-5-5-5-5-5-5-5-x-5-5-5-x-5-5-5-x-5-5-5-5-5-5-5-5-----------|
A|-5-5-5-5-5-5-5-x-5-5-5-5-5-5-5-x-5-5-5-x-5-5-5-x-5-5-5-5-5-5-5-5-----------|
E|-3-3-3-3-3-3-3-x-3-3-3-3-3-3-3-x-3-3-3-x-3-3-3-x-3-3-3-3-3-3-3-3-----------|

Solo:

e|---------------------------------------------------------------------------|
B|---------------------------------------------------------------------------|
G|---------------------------------------------------------------------------|
D|---6h7p6---4h5p4-----------------------------------------------------------|
A|-7-------5-----------4h5p4-4h5p4-------------------------------------------|
E|-----------------5-5-------------------------------------------------------|

Outro:

e|---------------------------------------------------------------------------|
B|---------------------------------------------------------------------------|
G|---------------------------------------------------------------------------|
D|-2~------------------------------------------------------------------------|
A|-2~------------------------------------------------------------------------|
E|-0~------------------------------------------------------------------------|

Order:

Intro  x2
Verse  x4
Chorus x1
Verse  x4
Chorus x1
Solo   x4
Verse  x4
Chorus x1
Outro  x2 (Play once at the start of the drum solo, then again at the end)

h  hammer-on
p  pull-off
x  Mute note
~  Let ring
===============================================================================
Tap to rate this tab
# A B C D E F G H I J K L M N O P Q R S T U V W X Y Z