Song name
# A B C D E F G H I J K L M N O P Q R S T U V W X Y Z

Misc Unsigned Bands - Chance Ott - Calm Before The Storm tab

Capo on 5th fret
Rhythm for Intro (no capo) Am C B (single note)

E------------------------------------------------------------------------------------------|
B------------------------------------------------------------------------------------------|
G------0---0----------0---0----------0---0---------0--0------0---0-----0---0--------2---2--|
D-----2---2---------2---2----------0---0---------2--2------2---2------2---2-------0----0---|
A------------------------------------------------------------------------------------------|
E-0--------------3---------------2------------0-----------0-----------3-----------2--------|


E------------------------------------------------------------------------------------|
B------------------------------------------------------------------------------------|
G------4---4-------4---2--------0---0-------0---0-------0---0------0---0------0---0--|
D----0---0-------0---0--------2---2-------2---2-------2---2------2---2------2---2----|
A-------------------------------------------------------------------------------0----|
E--3-----------2-------------0-----------0------------2----------3-------------------|


E------------------------------------------------------------------------------------------------|
B------------------------------------------------------------------------------------------------|
G------0---0-------0---0------0---0-------0---0--------0---0-------0---0-----0---0--------0---0--|
D----2---2-------2---2------2---2-------2---2--------2---2-------2---2-----2---2--------2---2----|
A--2-----------3--------------------------------------2-----------3------------------------------|
E---------------------------3-----------0-------------------------------------3------------0-----|

Repeat through one normal progression

E-------------------------------------------------------------------------------------|
B-------------------------------------------------------------------------------------|
G------4---0-------4---0------4---0-------4---4------4---4-------4---0----------------|
D----2---2-------2---2------0---0-------2---2------2---2-------0---0------------------|
A-------------------------------------------------------------------------------------|
E--0-----------3-----------2-----------0-----------3-----------2----------------------|
Tap to rate this tab
# A B C D E F G H I J K L M N O P Q R S T U V W X Y Z