Song name
# A B C D E F G H I J K L M N O P Q R S T U V W X Y Z

Misc Unsigned Bands - Journeyman - The Lonely Soul Of Dragon tab

BLACK METAL /,,/
www.mikseri.net/journeyman
www.myspace.com/journeymanfin


                        Journeyman - The lonely soul of dragon

gtr1
wwˆ
this song is tune 1 down step


                  |--3--|  |--3--|                  |--3--|  |--3--|   
     Q    S S S S E  E  E  E  E  E     Q    S S S S E  E  E  E  E  E   
D||--7------------6-----6-----6-----|--7------------6-----6-----6-----|
A||--8------------7-----7-----7-----|--8------------7-----7-----7-----|
F||--9------------8-----8-----8-----|--9------------8-----8-----8-----|
C||--9------------8-----8-----8-----|--9------------8-----8-----8-----|
G||--7----7-7-7-7-6-----6-----6-----|--7----7-7-7-7-6-----6-----6-----|
D||---------------------------------|---------------------------------|


               |--3--|  |--3--|                       
  Q    S S S S E  E  E  E  E  E     W                 
--7------------6-----6-----6-----|--7----------------|
--8------------7-----7-----7-----|--8----------------|
--9------------8-----8-----8-----|--9----------------|
--9------------8-----8-----8-----|--9----------------|
--7----7-7-7-7-6-----6-----6-----|--7----------------|
---------------------------------|-------------------|


               |--3--|  |--3--|                  |--3--|  |--3--|   
  Q    S S S S E  E  E  E  E  E     Q    S S S S E  E  E  E  E  E   
--7------------6-----6-----6-----|--7------------6-----6-----6-----|
--8------------7-----7-----7-----|--8------------7-----7-----7-----|
--9------------8-----8-----8-----|--9------------8-----8-----8-----|
--9------------8-----8-----8-----|--9------------8-----8-----8-----|
--7----7-7-7-7-6-----6-----6-----|--7----7-7-7-7-6-----6-----6-----|
---------------------------------|---------------------------------|


               |--3--|  |--3--|                       
  Q    S S S S E  E  E  E  E  E     W                 
--7------------6-----6-----6-----|--7----------------|
--8------------7-----7-----7-----|--8----------------|
--9------------8-----8-----8-----|--9----------------|
--9------------8-----8-----8-----|--9----------------|
--7----7-7-7-7-6-----6-----6-----|--7----------------|
---------------------------------|-------------------|


  |-3-| |-3-| |-3-| |-3-| |-3-| |-3-| |-3-| |-3-|  
  S S S S S S S S S S S S S S S S S S S S S S S S  
--------------------------------------------------|
--------------------------------------------------|
--------------------------------------------------|
--9-----------------------------------------------|
--7-7-7-7-7-7-7-7-7-7-7-7-7-7-7-7-7-7-7-7-7-7-7-7-|
--------------------------------------------------|


  |-3-| |-3-| |-3-| |-3-| |--3--|  |--3--|   
  S S S S S S S S S S S S E  E  E  E  E  E   
--------------------------6-----6-----6-----|
--------------------------7-----7-----7-----|
--------------------------8-----8-----8-----|
--------------------------8-----8-----8-----|
--7-7-7-7-7-7-7-7-7-7-7-7-6-----6-----6-----|
--------------------------------------------|


  |-3-| |-3-| |-3-| |-3-| |-3-| |-3-| |-3-| |-3-|  
  S S S S S S S S S S S S S S S S S S S S S S S S  
--------------------------------------------------|
--------------------------------------------------|
--------------------------------------------------|
--9-----------------------------------------------|
--7-7-7-7-7-7-7-7-7-7-7-7-7-7-7-7-7-7-7-7-7-7-7-7-|
--------------------------------------------------|


  |-3-| |-3-| |-3-| |-3-|  |---3--|  |---3--|   
  S S S S S S S S S S S S  E  E   E  E   E  E   
---------------------------8------8------8-----|
---------------------------9------9------9-----|
--------------------------10-----10-----10-----|
--------------------------10-----10-----10-----|
--7-7-7-7-7-7-7-7-7-7-7-7--8------8------8-----|
-----------------------------------------------|


  |-3-| |-3-| |-3-| |-3-| |-3-| |-3-| |-3-| |-3-|  
  S S S S S S S S S S S S S S S S S S S S S S S S  
--------------------------------------------------|
--------------------------------------------------|
--------------------------------------------------|
--9-----------------------------------------------|
--7-7-7-7-7-7-7-7-7-7-7-7-7-7-7-7-7-7-7-7-7-7-7-7-|
--------------------------------------------------|


  |-3-| |-3-| |-3-| |-3-| |--3--|  |--3--|   
  S S S S S S S S S S S S E  E  E  E  E  E   
--------------------------6-----6-----6-----|
--------------------------7-----7-----7-----|
--------------------------8-----8-----8-----|
--------------------------8-----8-----8-----|
--7-7-7-7-7-7-7-7-7-7-7-7-6-----6-----6-----|
--------------------------------------------|


  |-3-| |-3-| |-3-| |-3-| |-3-| |-3-| |-3-| |-3-|  
  S S S S S S S S S S S S S S S S S S S S S S S S  
--------------------------------------------------|
--------------------------------------------------|
--------------------------------------------------|
--9-----------------------------------------------|
--7-7-7-7-7-7-7-7-7-7-7-7-7-7-7-7-7-7-7-7-7-7-7-7-|
--------------------------------------------------|


  |-3-| |-3-| |-3-| |-3-|  |---3--|  |---3--|   
  S S S S S S S S S S S S  E  E   E  E   E  E   
---------------------------8------8------8-----|
---------------------------9------9------9-----|
--------------------------10-----10-----10-----|
--------------------------10-----10-----10-----|
--7-7-7-7-7-7-7-7-7-7-7-7--8------8------8-----|
-----------------------------------------------|


  |-3-| |-3-| |-3-| |-3-| |-3-| |-3-| |-3-| |-3-|  
  S S S S S S S S S S S S S S S S S S S S S S S S  
--------------------------------------------------|
--------------------------------------------------|
--------------------------------------------------|
--9-----------------------------------------------|
--7-7-7-7-7-7-7-7-7-7-7-7-7-7-7-7-7-7-7-7-7-7-7-7-|
--------------------------------------------------|


  |-3-| |-3-| |-3-| |-3-| |--3--|  |--3--|   
  S S S S S S S S S S S S E  E  E  E  E  E   
--------------------------6-----6-----6-----|
--------------------------7-----7-----7-----|
--------------------------8-----8-----8-----|
--------------------------8-----8-----8-----|
--7-7-7-7-7-7-7-7-7-7-7-7-6-----6-----6-----|
--------------------------------------------|


  |-3-| |-3-| |-3-| |-3-| |-3-| |-3-| |-3-| |-3-|  
  S S S S S S S S S S S S S S S S S S S S S S S S  
--------------------------------------------------|
--------------------------------------------------|
--------------------------------------------------|
--9-----------------------------------------------|
--7-7-7-7-7-7-7-7-7-7-7-7-7-7-7-7-7-7-7-7-7-7-7-7-|
--------------------------------------------------|


  |-3-| |-3-| |-3-| |-3-|  |---3--|  |---3--|   
  S S S S S S S S S S S S  E  E   E  E   E  E   
---------------------------8------8------8-----|
---------------------------9------9------9-----|
--------------------------10-----10-----10-----|
--------------------------10-----10-----10-----|
--7-7-7-7-7-7-7-7-7-7-7-7--8------8------8-----|
-----------------------------------------------|


  |-3-| |-3-| |-3-| |-3-| |-3-| |-3-| |-3-| |-3-|  
  S S S S S S S S S S S S S S S S S S S S S S S S  
--------------------------------------------------|
--------------------------------------------------|
--------------------------------------------------|
--9-----------------------------------------------|
--7-7-7-7-7-7-7-7-7-7-7-7-7-7-7-7-7-7-7-7-7-7-7-7-|
--------------------------------------------------|


  |-3-| |-3-| |-3-| |-3-| |--3--|  |--3--|   
  S S S S S S S S S S S S E  E  E  E  E  E   
--------------------------6-----6-----6-----|
--------------------------7-----7-----7-----|
--------------------------8-----8-----8-----|
--------------------------8-----8-----8-----|
--7-7-7-7-7-7-7-7-7-7-7-7-6-----6-----6-----|
--------------------------------------------|


  |-3-| |-3-| |-3-| |-3-| |-3-| |-3-| |-3-| |-3-|  
  S S S S S S S S S S S S S S S S S S S S S S S S  
--------------------------------------------------|
--------------------------------------------------|
--------------------------------------------------|
--9-----------------------------------------------|
--7-7-7-7-7-7-7-7-7-7-7-7-7-7-7-7-7-7-7-7-7-7-7-7-|
--------------------------------------------------|


  |-3-| |-3-| |-3-| |-3-|  |---3--|  |---3--|   
  S S S S S S S S S S S S  E  E   E  E   E  E   
---------------------------8------8------8-----|
---------------------------9------9------9-----|
--------------------------10-----10-----10-----|
--------------------------10-----10-----10-----|
--7-7-7-7-7-7-7-7-7-7-7-7--8------8------8-----|
-----------------------------------------------|


  |-3-| |-3-| |-3-| |-3-|  |--3--|  |--3--| |-3-| |-3-|  
  S S S S S S S S S S S S  S  S  S  S  S  S S S S S S S  
--------------------------------------------------------|
--------------------------------------------------------|
--------------------------------------------------------|
--------------------------------------------------------|
--------------7-7-7-7-7-7-10-10-10-10-10-10-7-7-7-7-7-7-|
--0-0-0-0-0-0-------------------------------------------|


  |-3-| |-3-| |-3-| |-3-| |-3-| |-3-| |-3-| |-3-|  
  S S S S S S S S S S S S S S S S S S S S S S S S  
--------------------------------------------------|
--------------------------------------------------|
--------------------------------------------------|
--------------------------8-8-8-8-8-8-------------|
--------------9-9-9-9-9-9-------------9-9-9-9-9-9-|
--6-6-6-6-6-6-------------------------------------|


  |-3-| |-3-| |-3-| |-3-|  |--3--|  |--3--| |-3-| |-3-|  
  S S S S S S S S S S S S  S  S  S  S  S  S S S S S S S  
--------------------------------------------------------|
--------------------------------------------------------|
--------------------------------------------------------|
--------------------------------------------------------|
--------------7-7-7-7-7-7-10-10-10-10-10-10-7-7-7-7-7-7-|
--0-0-0-0-0-0-------------------------------------------|


   |--3--|  |--3--| |-3-| |-3-| |-3-| |-3-| |-3-| |-3-|  
   S  S  S  S  S  S S S S S S S S S S S S S S S S S S S  
--------------------------------------------------------|
--------------------------------------------------------|
--------------------------------------------------------|
--10-10-10-10-10-10-9-9-9-9-9-9-7-7-7-7-7-7-9-9-9-9-9-9-|
--------------------------------------------------------|
--------------------------------------------------------|


  |-3-| |-3-| |-3-| |-3-|  |--3--|  |--3--| |-3-| |-3-|  
  S S S S S S S S S S S S  S  S  S  S  S  S S S S S S S  
--------------------------------------------------------|
--------------------------------------------------------|
--------------------------------------------------------|
--------------------------------------------------------|
--------------7-7-7-7-7-7-10-10-10-10-10-10-7-7-7-7-7-7-|
--0-0-0-0-0-0-------------------------------------------|


  |-3-| |-3-| |-3-| |-3-| |-3-| |-3-| |-3-| |-3-|  
  S S S S S S S S S S S S S S S S S S S S S S S S  
--------------------------------------------------|
--------------------------------------------------|
--------------------------------------------------|
--------------------------8-8-8-8-8-8-------------|
--------------9-9-9-9-9-9-------------9-9-9-9-9-9-|
--6-6-6-6-6-6-------------------------------------|


  |-3-| |-3-| |-3-| |-3-|  |--3--|  |--3--| |-3-| |-3-|  
  S S S S S S S S S S S S  S  S  S  S  S  S S S S S S S  
--------------------------------------------------------|
--------------------------------------------------------|
--------------------------------------------------------|
--------------------------------------------------------|
--------------7-7-7-7-7-7-10-10-10-10-10-10-7-7-7-7-7-7-|
--0-0-0-0-0-0-------------------------------------------|


   |--3--|  |--3--| |-3-| |-3-| |-3-| |-3-| |-3-| |-3-|  
   S  S  S  S  S  S S S S S S S S S S S S S S S S S S S  
--------------------------------------------------------|
--------------------------------------------------------|
--------------------------------------------------------|
--10-10-10-10-10-10-9-9-9-9-9-9-7-7-7-7-7-7-9-9-9-9-9-9-|
--------------------------------------------------------|
--------------------------------------------------------|


  |-3-| |-3-| |-3-| |-3-|  |--3--|  |--3--| |-3-| |-3-|  
  S S S S S S S S S S S S  S  S  S  S  S  S S S S S S S  
--------------------------------------------------------|
--------------------------------------------------------|
--------------------------------------------------------|
--------------------------------------------------------|
--------------7-7-7-7-7-7-10-10-10-10-10-10-7-7-7-7-7-7-|
--0-0-0-0-0-0-------------------------------------------|


  |-3-| |-3-| |-3-| |-3-| |-3-| |-3-| |-3-| |-3-|  
  S S S S S S S S S S S S S S S S S S S S S S S S  
--------------------------------------------------|
--------------------------------------------------|
--------------------------------------------------|
--------------------------8-8-8-8-8-8-------------|
--------------9-9-9-9-9-9-------------9-9-9-9-9-9-|
--6-6-6-6-6-6-------------------------------------|


  |-3-| |-3-| |-3-| |-3-|  |--3--|  |--3--| |-3-| |-3-|  
  S S S S S S S S S S S S  S  S  S  S  S  S S S S S S S  
--------------------------------------------------------|
--------------------------------------------------------|
--------------------------------------------------------|
--------------------------------------------------------|
--------------7-7-7-7-7-7-10-10-10-10-10-10-7-7-7-7-7-7-|
--0-0-0-0-0-0-------------------------------------------|


   |--3--|  |--3--| |-3-| |-3-| |-3-| |-3-| |-3-| |-3-|  
   S  S  S  S  S  S S S S S S S S S S S S S S S S S S S  
--------------------------------------------------------|
--------------------------------------------------------|
--------------------------------------------------------|
--10-10-10-10-10-10-9-9-9-9-9-9-7-7-7-7-7-7-9-9-9-9-9-9-|
--------------------------------------------------------|
--------------------------------------------------------|


  |-3-| |-3-| |-3-| |-3-|  |--3--|  |--3--| |-3-| |-3-|  
  S S S S S S S S S S S S  S  S  S  S  S  S S S S S S S  
--------------------------------------------------------|
--------------------------------------------------------|
--------------------------------------------------------|
--------------------------------------------------------|
--------------7-7-7-7-7-7-10-10-10-10-10-10-7-7-7-7-7-7-|
--0-0-0-0-0-0-------------------------------------------|


  |-3-| |-3-| |-3-| |-3-| |-3-| |-3-| |-3-| |-3-|  
  S S S S S S S S S S S S S S S S S S S S S S S S  
--------------------------------------------------|
--------------------------------------------------|
--------------------------------------------------|
--------------------------8-8-8-8-8-8-------------|
--------------9-9-9-9-9-9-------------9-9-9-9-9-9-|
--6-6-6-6-6-6-------------------------------------|


  |-3-| |-3-| |-3-| |-3-|  |--3--|  |--3--| |-3-| |-3-|  
  S S S S S S S S S S S S  S  S  S  S  S  S S S S S S S  
--------------------------------------------------------|
--------------------------------------------------------|
--------------------------------------------------------|
--------------------------------------------------------|
--------------7-7-7-7-7-7-10-10-10-10-10-10-7-7-7-7-7-7-|
--0-0-0-0-0-0-------------------------------------------|


   |--3--|  |--3--| |-3-| |-3-| |-3-| |-3-| |-3-| |-3-|  
   S  S  S  S  S  S S S S S S S S S S S S S S S S S S S  
--------------------------------------------------------|
--------------------------------------------------------|
--------------------------------------------------------|
--10-10-10-10-10-10-9-9-9-9-9-9-7-7-7-7-7-7-9-9-9-9-9-9-|
--------------------------------------------------------|
--------------------------------------------------------|


  |-3-| |-3-| |-3-| |-3-|  |--3--|  |--3--| |-3-| |-3-|  
  S S S S S S S S S S S S  S  S  S  S  S  S S S S S S S  
--------------------------------------------------------|
--------------------------------------------------------|
--------------------------------------------------------|
--------------------------------------------------------|
--------------7-7-7-7-7-7-10-10-10-10-10-10-7-7-7-7-7-7-|
--0-0-0-0-0-0-------------------------------------------|


  |-3-| |-3-| |-3-| |-3-| |-3-| |-3-| |-3-| |-3-|  
  S S S S S S S S S S S S S S S S S S S S S S S S  
--------------------------------------------------|
--------------------------------------------------|
--------------------------------------------------|
--------------------------8-8-8-8-8-8-------------|
--------------9-9-9-9-9-9-------------9-9-9-9-9-9-|
--6-6-6-6-6-6-------------------------------------|


  |-3-| |-3-| |-3-| |-3-|  |--3--|  |--3--| |-3-| |-3-|  
  S S S S S S S S S S S S  S  S  S  S  S  S S S S S S S  
--------------------------------------------------------|
--------------------------------------------------------|
--------------------------------------------------------|
--------------------------------------------------------|
--------------7-7-7-7-7-7-10-10-10-10-10-10-7-7-7-7-7-7-|
--0-0-0-0-0-0-------------------------------------------|


   |--3--|  |--3--| |-3-| |-3-| |-3-| |-3-| |-3-| |-3-|  
   S  S  S  S  S  S S S S S S S S S S S S S S S S S S S  
--------------------------------------------------------|
--------------------------------------------------------|
--------------------------------------------------------|
--10-10-10-10-10-10-9-9-9-9-9-9-7-7-7-7-7-7-9-9-9-9-9-9-|
--------------------------------------------------------|
--------------------------------------------------------|


  |-3-| |-3-| |-3-| |-3-|  |--3--|  |--3--| |-3-| |-3-|  
  S S S S S S S S S S S S  S  S  S  S  S  S S S S S S S  
--------------------------------------------------------|
--------------------------------------------------------|
--------------------------------------------------------|
--------------------------------------------------------|
--------------7-7-7-7-7-7-10-10-10-10-10-10-7-7-7-7-7-7-|
--0-0-0-0-0-0-------------------------------------------|


  |-3-| |-3-| |-3-| |-3-| |-3-| |-3-| |-3-| |-3-|  
  S S S S S S S S S S S S S S S S S S S S S S S S  
--------------------------------------------------|
--------------------------------------------------|
--------------------------------------------------|
--------------------------8-8-8-8-8-8-------------|
--------------9-9-9-9-9-9-------------9-9-9-9-9-9-|
--6-6-6-6-6-6-------------------------------------|


  |-3-| |-3-| |-3-| |-3-|  |--3--|  |--3--| |-3-| |-3-|  
  S S S S S S S S S S S S  S  S  S  S  S  S S S S S S S  
--------------------------------------------------------|
--------------------------------------------------------|
--------------------------------------------------------|
--------------------------------------------------------|
--------------7-7-7-7-7-7-10-10-10-10-10-10-7-7-7-7-7-7-|
--0-0-0-0-0-0-------------------------------------------|


   |--3--|  |--3--| |-3-| |-3-| |-3-| |-3-| |-3-| |-3-|  
   S  S  S  S  S  S S S S S S S S S S S S S S S S S S S  
--------------------------------------------------------|
--------------------------------------------------------|
--------------------------------------------------------|
--10-10-10-10-10-10-9-9-9-9-9-9-7-7-7-7-7-7-9-9-9-9-9-9-|
--------------------------------------------------------|
--------------------------------------------------------|


  |-3-| |-3-| |-3-| |-3-| |-3-| |-3-| |-3-| |-3-|  
  S S S S S S S S S S S S S S S S S S S S S S S S  
--------------------------------------------------|
--------------------------------------------------|
--------------------------------------------------|
--------------------------------------------------|
--------------8-8-8-8-8-8-7-7-7-7-7-7-8-8-8-8-8-8-|
--5-5-5-5-5-5-------------------------------------|


  |-3-| |-3-| |-3-| |-3-| |-3-| |-3-| |-3-| |-3-|  
  S S S S S S S S S S S S S S S S S S S S S S S S  
--------------------------------------------------|
--------------------------------------------------|
--------------------------------------------------|
--------------------------------------------------|
--------------6-6-6-6-6-6-7-7-7-7-7-7-6-6-6-6-6-6-|
--4-4-4-4-4-4-------------------------------------|


  |-3-| |-3-| |-3-| |-3-| |-3-| |-3-| |-3-| |-3-|  
  S S S S S S S S S S S S S S S S S S S S S S S S  
--------------------------------------------------|
--------------------------------------------------|
--------------------------------------------------|
--------------------------------------------------|
--------------8-8-8-8-8-8-7-7-7-7-7-7-8-8-8-8-8-8-|
--5-5-5-5-5-5-------------------------------------|


  |-3-| |-3-| |-3-| |-3-| |-3-| |-3-| |-3-| |-3-|  
  S S S S S S S S S S S S S S S S S S S S S S S S  
--------------------------------------------------|
--------------------------------------------------|
--------------------------------------------------|
--------------------------------------------------|
--------------6-6-6-6-6-6-7-7-7-7-7-7-6-6-6-6-6-6-|
--4-4-4-4-4-4-------------------------------------|


  |-3-| |-3-| |-3-| |-3-| |-3-| |-3-| |-3-| |-3-|  
  S S S S S S S S S S S S S S S S S S S S S S S S  
--------------------------------------------------|
--------------------------------------------------|
--------------------------------------------------|
--------------------------------------------------|
--------------8-8-8-8-8-8-7-7-7-7-7-7-8-8-8-8-8-8-|
--5-5-5-5-5-5-------------------------------------|


  |-3-| |-3-| |-3-| |-3-| |-3-| |-3-| |-3-| |-3-|  
  S S S S S S S S S S S S S S S S S S S S S S S S  
--------------------------------------------------|
--------------------------------------------------|
--------------------------------------------------|
--------------------------------------------------|
--------------6-6-6-6-6-6-7-7-7-7-7-7-6-6-6-6-6-6-|
--4-4-4-4-4-4-------------------------------------|


  |-3-| |-3-| |-3-| |-3-| |-3-| |-3-| |-3-| |-3-|  
  S S S S S S S S S S S S S S S S S S S S S S S S  
--------------------------------------------------|
--------------------------------------------------|
--------------------------------------------------|
--------------------------------------------------|
--------------8-8-8-8-8-8-7-7-7-7-7-7-8-8-8-8-8-8-|
--5-5-5-5-5-5-------------------------------------|


  |-3-| |-3-| |-3-| |-3-| |-3-| |-3-| |-3-| |-3-|                      
  S S S S S S S S S S S S S S S S S S S S S S S S    W                 
--------------------------------------------------|-------------------|
--------------------------------------------------|-------------------|
--------------------------------------------------|-------------------|
--------------------------------------------------|--2----------------|
--------------6-6-6-6-6-6-7-7-7-7-7-7-6-6-6-6-6-6-|--2----------------|
--4-4-4-4-4-4-------------------------------------|--0----------------|


  W                   W                   W                   W                 
-------------------|-------------------|-------------------|-------------------|
-------------------|-------------------|-------------------|-------------------|
-------------------|-------------------|-------------------|-------------------|
--5----------------|-------------------|-------------------|--2----------------|
--3----------------|--6----------------|--9----------------|--2----------------|
-------------------|--4----------------|--7----------------|--0----------------|


  W                   W                   W                   W                 
-------------------|-------------------|-------------------|-------------------|
-------------------|-------------------|-------------------|-------------------|
-------------------|-------------------|-------------------|-------------------|
--5----------------|-------------------|-------------------|--2----------------|
--3----------------|--6----------------|--9----------------|--2----------------|
-------------------|--4----------------|--7----------------|--0----------------|


  W                   W                   W                   W                 
-------------------|-------------------|-------------------|-------------------|
-------------------|-------------------|-------------------|-------------------|
-------------------|-------------------|-------------------|-------------------|
--5----------------|-------------------|-------------------|--2----------------|
--3----------------|--6----------------|--9----------------|--2----------------|
-------------------|--4----------------|--7----------------|--0----------------|


  W                   W                   Q    E  E  E  E  E  E   
-------------------|-------------------|-------------------------|
-------------------|-------------------|-------------------------|
-------------------|-------------------|-------------------------|
--5----------------|-------------------|-------------------------|
--3----------------|--6----------------|--9----------------------|
-------------------|--4----------------|--7----------------------|


  |-3-| |-3-| |-3-| |-3-| |-3-| |-3-| |-3-| |-3-|  
  S S S S S S S S S S S S S S S S S S S S S S S S  
--------------------------------------------------|
--------------------------------------------------|
--------------------------------------------------|
--9-----------------------------------------------|
--7-7-7-7-7-7-7-7-7-7-7-7-7-7-7-7-7-7-7-7-7-7-7-7-|
--------------------------------------------------|


  |-3-| |-3-| |-3-| |-3-| |--3--|  |--3--|   
  S S S S S S S S S S S S E  E  E  E  E  E   
--------------------------6-----6-----6-----|
--------------------------7-----7-----7-----|
--------------------------8-----8-----8-----|
--------------------------8-----8-----8-----|
--7-7-7-7-7-7-7-7-7-7-7-7-6-----6-----6-----|
--------------------------------------------|


  |-3-| |-3-| |-3-| |-3-| |-3-| |-3-| |-3-| |-3-|  
  S S S S S S S S S S S S S S S S S S S S S S S S  
--------------------------------------------------|
--------------------------------------------------|
--------------------------------------------------|
--9-----------------------------------------------|
--7-7-7-7-7-7-7-7-7-7-7-7-7-7-7-7-7-7-7-7-7-7-7-7-|
--------------------------------------------------|


  |-3-| |-3-| |-3-| |-3-|  |---3--|  |---3--|   
  S S S S S S S S S S S S  E  E   E  E   E  E   
---------------------------8------8------8-----|
---------------------------9------9------9-----|
--------------------------10-----10-----10-----|
--------------------------10-----10-----10-----|
--7-7-7-7-7-7-7-7-7-7-7-7--8------8------8-----|
-----------------------------------------------|


  |-3-| |-3-| |-3-| |-3-| |-3-| |-3-| |-3-| |-3-|  
  S S S S S S S S S S S S S S S S S S S S S S S S  
--------------------------------------------------|
--------------------------------------------------|
--------------------------------------------------|
--9-----------------------------------------------|
--7-7-7-7-7-7-7-7-7-7-7-7-7-7-7-7-7-7-7-7-7-7-7-7-|
--------------------------------------------------|


  |-3-| |-3-| |-3-| |-3-| |--3--|  |--3--|   
  S S S S S S S S S S S S E  E  E  E  E  E   
--------------------------6-----6-----6-----|
--------------------------7-----7-----7-----|
--------------------------8-----8-----8-----|
--------------------------8-----8-----8-----|
--7-7-7-7-7-7-7-7-7-7-7-7-6-----6-----6-----|
--------------------------------------------|


  |-3-| |-3-| |-3-| |-3-| |-3-| |-3-| |-3-| |-3-|  
  S S S S S S S S S S S S S S S S S S S S S S S S  
--------------------------------------------------|
--------------------------------------------------|
--------------------------------------------------|
--9-----------------------------------------------|
--7-7-7-7-7-7-7-7-7-7-7-7-7-7-7-7-7-7-7-7-7-7-7-7-|
--------------------------------------------------|


  |-3-| |-3-| |-3-| |-3-|  |---3--|  |---3--|   
  S S S S S S S S S S S S  E  E   E  E   E  E   
---------------------------8------8------8-----|
---------------------------9------9------9-----|
--------------------------10-----10-----10-----|
--------------------------10-----10-----10-----|
--7-7-7-7-7-7-7-7-7-7-7-7--8------8------8-----|
-----------------------------------------------|


  |-3-| |-3-| |-3-| |-3-| |-3-| |-3-| |-3-| |-3-|  
  S S S S S S S S S S S S S S S S S S S S S S S S  
--------------------------------------------------|
--------------------------------------------------|
--------------------------------------------------|
--9-----------------------------------------------|
--7-7-7-7-7-7-7-7-7-7-7-7-7-7-7-7-7-7-7-7-7-7-7-7-|
--------------------------------------------------|


  |-3-| |-3-| |-3-| |-3-| |--3--|  |--3--|   
  S S S S S S S S S S S S E  E  E  E  E  E   
--------------------------6-----6-----6-----|
--------------------------7-----7-----7-----|
--------------------------8-----8-----8-----|
--------------------------8-----8-----8-----|
--7-7-7-7-7-7-7-7-7-7-7-7-6-----6-----6-----|
--------------------------------------------|


  |-3-| |-3-| |-3-| |-3-| |-3-| |-3-| |-3-| |-3-|  
  S S S S S S S S S S S S S S S S S S S S S S S S  
--------------------------------------------------|
--------------------------------------------------|
--------------------------------------------------|
--9-----------------------------------------------|
--7-7-7-7-7-7-7-7-7-7-7-7-7-7-7-7-7-7-7-7-7-7-7-7-|
--------------------------------------------------|


  |-3-| |-3-| |-3-| |-3-|  |---3--|  |---3--|   
  S S S S S S S S S S S S  E  E   E  E   E  E   
---------------------------8------8------8-----|
---------------------------9------9------9-----|
--------------------------10-----10-----10-----|
--------------------------10-----10-----10-----|
--7-7-7-7-7-7-7-7-7-7-7-7--8------8------8-----|
-----------------------------------------------|


  |-3-| |-3-| |-3-| |-3-| |-3-| |-3-| |-3-| |-3-|  
  S S S S S S S S S S S S S S S S S S S S S S S S  
--------------------------------------------------|
--------------------------------------------------|
--------------------------------------------------|
--9-----------------------------------------------|
--7-7-7-7-7-7-7-7-7-7-7-7-7-7-7-7-7-7-7-7-7-7-7-7-|
--------------------------------------------------|


  |-3-| |-3-| |-3-| |-3-| |--3--|  |--3--|   
  S S S S S S S S S S S S E  E  E  E  E  E   
--------------------------6-----6-----6-----|
--------------------------7-----7-----7-----|
--------------------------8-----8-----8-----|
--------------------------8-----8-----8-----|
--7-7-7-7-7-7-7-7-7-7-7-7-6-----6-----6-----|
--------------------------------------------|


  |-3-| |-3-| |-3-| |-3-| |-3-| |-3-| |-3-| |-3-|  
  S S S S S S S S S S S S S S S S S S S S S S S S  
--------------------------------------------------|
--------------------------------------------------|
--------------------------------------------------|
--9-----------------------------------------------|
--7-7-7-7-7-7-7-7-7-7-7-7-7-7-7-7-7-7-7-7-7-7-7-7-|
--------------------------------------------------|


  |-3-| |-3-| |-3-| |-3-|  |---3--|  |---3--|   
  S S S S S S S S S S S S  E  E   E  E   E  E   
---------------------------8------8------8-----|
---------------------------9------9------9-----|
--------------------------10-----10-----10-----|
--------------------------10-----10-----10-----|
--7-7-7-7-7-7-7-7-7-7-7-7--8------8------8-----|
-----------------------------------------------|


  |-3-| |-3-| |-3-| |-3-|  |--3--|  |--3--| |-3-| |-3-|  
  S S S S S S S S S S S S  S  S  S  S  S  S S S S S S S  
--------------------------------------------------------|
--------------------------------------------------------|
--------------------------------------------------------|
--------------------------------------------------------|
--------------7-7-7-7-7-7-10-10-10-10-10-10-7-7-7-7-7-7-|
--0-0-0-0-0-0-------------------------------------------|


  |-3-| |-3-| |-3-| |-3-| |-3-| |-3-| |-3-| |-3-|  
  S S S S S S S S S S S S S S S S S S S S S S S S  
--------------------------------------------------|
--------------------------------------------------|
--------------------------------------------------|
--------------------------8-8-8-8-8-8-------------|
--------------9-9-9-9-9-9-------------9-9-9-9-9-9-|
--6-6-6-6-6-6-------------------------------------|


  |-3-| |-3-| |-3-| |-3-|  |--3--|  |--3--| |-3-| |-3-|  
  S S S S S S S S S S S S  S  S  S  S  S  S S S S S S S  
--------------------------------------------------------|
--------------------------------------------------------|
--------------------------------------------------------|
--------------------------------------------------------|
--------------7-7-7-7-7-7-10-10-10-10-10-10-7-7-7-7-7-7-|
--0-0-0-0-0-0-------------------------------------------|


   |--3--|  |--3--| |-3-| |-3-| |-3-| |-3-| |-3-| |-3-|  
   S  S  S  S  S  S S S S S S S S S S S S S S S S S S S  
--------------------------------------------------------|
--------------------------------------------------------|
--------------------------------------------------------|
--10-10-10-10-10-10-9-9-9-9-9-9-7-7-7-7-7-7-9-9-9-9-9-9-|
--------------------------------------------------------|
--------------------------------------------------------|


  |-3-| |-3-| |-3-| |-3-|  |--3--|  |--3--| |-3-| |-3-|  
  S S S S S S S S S S S S  S  S  S  S  S  S S S S S S S  
--------------------------------------------------------|
--------------------------------------------------------|
--------------------------------------------------------|
--------------------------------------------------------|
--------------7-7-7-7-7-7-10-10-10-10-10-10-7-7-7-7-7-7-|
--0-0-0-0-0-0-------------------------------------------|


  |-3-| |-3-| |-3-| |-3-| |-3-| |-3-| |-3-| |-3-|  
  S S S S S S S S S S S S S S S S S S S S S S S S  
--------------------------------------------------|
--------------------------------------------------|
--------------------------------------------------|
--------------------------8-8-8-8-8-8-------------|
--------------9-9-9-9-9-9-------------9-9-9-9-9-9-|
--6-6-6-6-6-6-------------------------------------|


  |-3-| |-3-| |-3-| |-3-|  |--3--|  |--3--| |-3-| |-3-|  
  S S S S S S S S S S S S  S  S  S  S  S  S S S S S S S  
--------------------------------------------------------|
--------------------------------------------------------|
--------------------------------------------------------|
--------------------------------------------------------|
--------------7-7-7-7-7-7-10-10-10-10-10-10-7-7-7-7-7-7-|
--0-0-0-0-0-0-------------------------------------------|


   |--3--|  |--3--| |-3-| |-3-| |-3-| |-3-| |-3-| |-3-|  
   S  S  S  S  S  S S S S S S S S S S S S S S S S S S S  
--------------------------------------------------------|
--------------------------------------------------------|
--------------------------------------------------------|
--10-10-10-10-10-10-9-9-9-9-9-9-7-7-7-7-7-7-9-9-9-9-9-9-|
--------------------------------------------------------|
--------------------------------------------------------|


  |-3-| |-3-| |-3-| |-3-|  |--3--|  |--3--| |-3-| |-3-|  
  S S S S S S S S S S S S  S  S  S  S  S  S S S S S S S  
--------------------------------------------------------|
--------------------------------------------------------|
--------------------------------------------------------|
--------------------------------------------------------|
--------------7-7-7-7-7-7-10-10-10-10-10-10-7-7-7-7-7-7-|
--0-0-0-0-0-0-------------------------------------------|


  |-3-| |-3-| |-3-| |-3-| |-3-| |-3-| |-3-| |-3-|  
  S S S S S S S S S S S S S S S S S S S S S S S S  
--------------------------------------------------|
--------------------------------------------------|
--------------------------------------------------|
--------------------------8-8-8-8-8-8-------------|
--------------9-9-9-9-9-9-------------9-9-9-9-9-9-|
--6-6-6-6-6-6-------------------------------------|


  |-3-| |-3-| |-3-| |-3-|  |--3--|  |--3--| |-3-| |-3-|  
  S S S S S S S S S S S S  S  S  S  S  S  S S S S S S S  
--------------------------------------------------------|
--------------------------------------------------------|
--------------------------------------------------------|
--------------------------------------------------------|
--------------7-7-7-7-7-7-10-10-10-10-10-10-7-7-7-7-7-7-|
--0-0-0-0-0-0-------------------------------------------|


   |--3--|  |--3--| |-3-| |-3-| |-3-| |-3-| |-3-| |-3-|  
   S  S  S  S  S  S S S S S S S S S S S S S S S S S S S  
--------------------------------------------------------|
--------------------------------------------------------|
--------------------------------------------------------|
--10-10-10-10-10-10-9-9-9-9-9-9-7-7-7-7-7-7-9-9-9-9-9-9-|
--------------------------------------------------------|
--------------------------------------------------------|


  |-3-| |-3-| |-3-| |-3-|  |--3--|  |--3--| |-3-| |-3-|  
  S S S S S S S S S S S S  S  S  S  S  S  S S S S S S S  
--------------------------------------------------------|
--------------------------------------------------------|
--------------------------------------------------------|
--------------------------------------------------------|
--------------7-7-7-7-7-7-10-10-10-10-10-10-7-7-7-7-7-7-|
--0-0-0-0-0-0-------------------------------------------|


  |-3-| |-3-| |-3-| |-3-| |-3-| |-3-| |-3-| |-3-|  
  S S S S S S S S S S S S S S S S S S S S S S S S  
--------------------------------------------------|
--------------------------------------------------|
--------------------------------------------------|
--------------------------8-8-8-8-8-8-------------|
--------------9-9-9-9-9-9-------------9-9-9-9-9-9-|
--6-6-6-6-6-6-------------------------------------|


  |-3-| |-3-| |-3-| |-3-|  |--3--|  |--3--| |-3-| |-3-|  
  S S S S S S S S S S S S  S  S  S  S  S  S S S S S S S  
--------------------------------------------------------|
--------------------------------------------------------|
--------------------------------------------------------|
--------------------------------------------------------|
--------------7-7-7-7-7-7-10-10-10-10-10-10-7-7-7-7-7-7-|
--0-0-0-0-0-0-------------------------------------------|


   |--3--|  |--3--| |-3-| |-3-| |-3-| |-3-| |-3-| |-3-|  
   S  S  S  S  S  S S S S S S S S S S S S S S S S S S S  
--------------------------------------------------------|
--------------------------------------------------------|
--------------------------------------------------------|
--10-10-10-10-10-10-9-9-9-9-9-9-7-7-7-7-7-7-9-9-9-9-9-9-|
--------------------------------------------------------|
--------------------------------------------------------|


  |-3-| |-3-| |-3-| |-3-|  |--3--|  |--3--| |-3-| |-3-|  
  S S S S S S S S S S S S  S  S  S  S  S  S S S S S S S  
--------------------------------------------------------|
--------------------------------------------------------|
--------------------------------------------------------|
--------------------------------------------------------|
--------------7-7-7-7-7-7-10-10-10-10-10-10-7-7-7-7-7-7-|
--0-0-0-0-0-0-------------------------------------------|


  |-3-| |-3-| |-3-| |-3-| |-3-| |-3-| |-3-| |-3-|  
  S S S S S S S S S S S S S S S S S S S S S S S S  
--------------------------------------------------|
--------------------------------------------------|
--------------------------------------------------|
--------------------------8-8-8-8-8-8-------------|
--------------9-9-9-9-9-9-------------9-9-9-9-9-9-|
--6-6-6-6-6-6-------------------------------------|


  |-3-| |-3-| |-3-| |-3-|  |--3--|  |--3--| |-3-| |-3-|  
  S S S S S S S S S S S S  S  S  S  S  S  S S S S S S S  
--------------------------------------------------------|
--------------------------------------------------------|
--------------------------------------------------------|
--------------------------------------------------------|
--------------7-7-7-7-7-7-10-10-10-10-10-10-7-7-7-7-7-7-|
--0-0-0-0-0-0-------------------------------------------|


   |--3--|  |--3--| |-3-| |-3-| |-3-| |-3-| |-3-| |-3-|  
   S  S  S  S  S  S S S S S S S S S S S S S S S S S S S  
--------------------------------------------------------|
--------------------------------------------------------|
--------------------------------------------------------|
--10-10-10-10-10-10-9-9-9-9-9-9-7-7-7-7-7-7-9-9-9-9-9-9-|
--------------------------------------------------------|
--------------------------------------------------------|


  |-3-| |-3-| |-3-| |-3-|  |--3--|  |--3--| |-3-| |-3-|  
  S S S S S S S S S S S S  S  S  S  S  S  S S S S S S S  
--------------------------------------------------------|
--------------------------------------------------------|
--------------------------------------------------------|
--------------------------------------------------------|
--------------7-7-7-7-7-7-10-10-10-10-10-10-7-7-7-7-7-7-|
--0-0-0-0-0-0-------------------------------------------|


  |-3-| |-3-| |-3-| |-3-| |-3-| |-3-| |-3-| |-3-|  
  S S S S S S S S S S S S S S S S S S S S S S S S  
--------------------------------------------------|
--------------------------------------------------|
--------------------------------------------------|
--------------------------8-8-8-8-8-8-------------|
--------------9-9-9-9-9-9-------------9-9-9-9-9-9-|
--6-6-6-6-6-6-------------------------------------|


  |-3-| |-3-| |-3-| |-3-|  |--3--|  |--3--| |-3-| |-3-|  
  S S S S S S S S S S S S  S  S  S  S  S  S S S S S S S  
--------------------------------------------------------|
--------------------------------------------------------|
--------------------------------------------------------|
--------------------------------------------------------|
--------------7-7-7-7-7-7-10-10-10-10-10-10-7-7-7-7-7-7-|
--0-0-0-0-0-0-------------------------------------------|


   |--3--|  |--3--| |-3-| |-3-| |-3-| |-3-| |-3-| |-3-|  
   S  S  S  S  S  S S S S S S S S S S S S S S S S S S S  
--------------------------------------------------------|
--------------------------------------------------------|
--------------------------------------------------------|
--10-10-10-10-10-10-9-9-9-9-9-9-7-7-7-7-7-7-9-9-9-9-9-9-|
--------------------------------------------------------|
--------------------------------------------------------|


  |-3-| |-3-| |-3-| |-3-| |-3-| |-3-| |-3-| |-3-|  
  S S S S S S S S S S S S S S S S S S S S S S S S  
--------------------------------------------------|
--------------------------------------------------|
--------------------------------------------------|
--------------------------------------------------|
--------------8-8-8-8-8-8-7-7-7-7-7-7-8-8-8-8-8-8-|
--5-5-5-5-5-5-------------------------------------|


  |-3-| |-3-| |-3-| |-3-| |-3-| |-3-| |-3-| |-3-|  
  S S S S S S S S S S S S S S S S S S S S S S S S  
--------------------------------------------------|
--------------------------------------------------|
--------------------------------------------------|
--------------------------------------------------|
--------------6-6-6-6-6-6-7-7-7-7-7-7-6-6-6-6-6-6-|
--4-4-4-4-4-4-------------------------------------|


  |-3-| |-3-| |-3-| |-3-| |-3-| |-3-| |-3-| |-3-|  
  S S S S S S S S S S S S S S S S S S S S S S S S  
--------------------------------------------------|
--------------------------------------------------|
--------------------------------------------------|
--------------------------------------------------|
--------------8-8-8-8-8-8-7-7-7-7-7-7-8-8-8-8-8-8-|
--5-5-5-5-5-5-------------------------------------|


  |-3-| |-3-| |-3-| |-3-| |-3-| |-3-| |-3-| |-3-|  
  S S S S S S S S S S S S S S S S S S S S S S S S  
--------------------------------------------------|
--------------------------------------------------|
--------------------------------------------------|
--------------------------------------------------|
--------------6-6-6-6-6-6-7-7-7-7-7-7-6-6-6-6-6-6-|
--4-4-4-4-4-4-------------------------------------|


  |-3-| |-3-| |-3-| |-3-| |-3-| |-3-| |-3-| |-3-|  
  S S S S S S S S S S S S S S S S S S S S S S S S  
--------------------------------------------------|
--------------------------------------------------|
--------------------------------------------------|
--------------------------------------------------|
--------------8-8-8-8-8-8-7-7-7-7-7-7-8-8-8-8-8-8-|
--5-5-5-5-5-5-------------------------------------|


  |-3-| |-3-| |-3-| |-3-| |-3-| |-3-| |-3-| |-3-|  
  S S S S S S S S S S S S S S S S S S S S S S S S  
--------------------------------------------------|
--------------------------------------------------|
--------------------------------------------------|
--------------------------------------------------|
--------------6-6-6-6-6-6-7-7-7-7-7-7-6-6-6-6-6-6-|
--4-4-4-4-4-4-------------------------------------|


  |-3-| |-3-| |-3-| |-3-| |-3-| |-3-| |-3-| |-3-|  
  S S S S S S S S S S S S S S S S S S S S S S S S  
--------------------------------------------------|
--------------------------------------------------|
--------------------------------------------------|
--------------------------------------------------|
--------------8-8-8-8-8-8-7-7-7-7-7-7-8-8-8-8-8-8-|
--5-5-5-5-5-5-------------------------------------|


  |-3-| |-3-| |-3-| |-3-| |-3-| |-3-| |-3-| |-3-|                      
  S S S S S S S S S S S S S S S S S S S S S S S S    W                 
--------------------------------------------------|-------------------|
--------------------------------------------------|-------------------|
--------------------------------------------------|-------------------|
--------------------------------------------------|--2----------------|
--------------6-6-6-6-6-6-7-7-7-7-7-7-6-6-6-6-6-6-|--2----------------|
--4-4-4-4-4-4-------------------------------------|--0----------------|


  W                   W                   W                   W                 
-------------------|-------------------|-------------------|-------------------|
-------------------|-------------------|-------------------|-------------------|
-------------------|-------------------|-------------------|-------------------|
--5----------------|-------------------|-------------------|--2----------------|
--3----------------|--6----------------|--9----------------|--2----------------|
-------------------|--4----------------|--7----------------|--0----------------|


  W                   W                   W                   W                 
-------------------|-------------------|-------------------|-------------------|
-------------------|-------------------|-------------------|-------------------|
-------------------|-------------------|-------------------|-------------------|
--5----------------|-------------------|-------------------|--2----------------|
--3----------------|--6----------------|--9----------------|--2----------------|
-------------------|--4----------------|--7----------------|--0----------------|


  W                   W                   W                   W                 
-------------------|-------------------|-------------------|-------------------|
-------------------|-------------------|-------------------|-------------------|
-------------------|-------------------|-------------------|-------------------|
--5----------------|-------------------|-------------------|--2----------------|
--3----------------|--6----------------|--9----------------|--2----------------|
-------------------|--4----------------|--7----------------|--0----------------|


  W                   W                   Q    E  E  E  E  E  E    
-------------------|-------------------|-------------------------||
-------------------|-------------------|-------------------------||
-------------------|-------------------|-------------------------||
--5----------------|-------------------|-------------------------||
--3----------------|--6----------------|--9----------------------||
-------------------|--4----------------|--7----------------------||




Duration Legend
---------------
W - whole
H - half
Q - quarter
E - 8th
S - 16th
T - 32nd
X - 64th
. - note dotted
|-n-|  - n-tuplets


Tablature Legend
----------------
L - tied note
x - dead note
g - grace note
(n) - ghost note
> - accentuded note
NH - natural harmonic
AH - artificial harmonic
TH - tapped harmonic
SH - semi harmonic
PH - pitch harmonic
h - hammer on
p - pull off
b - bend
br - bendRelease
pb - preBend
pbr - preBendRelease
brb - bendReleaseBend
\n/ - tremolo bar dip
\n - tremolo bar dive
-/n - tremolo bar Release up
/n\ - tremolo bar inverted dip
/n - tremolo bar return
-\n - tremolo bar Release down
S - shift slide
s - legato slide
/ -  slide into from below or out of upwards
\ -  slide into from above or out of downwards
~ - vibrato
W - wide vibrato
tr - trill
TP - tremolo picking
T - tapping
S - slap
P - pop
< - fade in
^ - brush up
v - brush down
Tap to rate this tab
 
# A B C D E F G H I J K L M N O P Q R S T U V W X Y Z