Song name
# A B C D E F G H I J K L M N O P Q R S T U V W X Y Z

Misc Unsigned Bands - Punish And Torment - Devil On My Barren Path tab

band:Punish and torment
song:devil on my barren path
album:Rise immortal EP demo          guitarists:zeropulse,faint

legend:^=bend string
       *=harmonic
       s=slide to string
       t=finger tap on solo

 intro-both guitars
1-------------------|
2----0---------0----|
3--0--2------3--0---|
4---4---5-----------|
5-------5--2------1-|
6---------0---------| repeat 5x

intro solo-faint(after second time of intro)
1---------10-12-9-------9t12t12t12t13t11t*-|
2-12-13-----------0------------------------|
3-------12---------------6-----------------|
4--------------------8s10------------------|
5------------------------------------------|
6------------------------------------------|
Tap to rate this tab
# A B C D E F G H I J K L M N O P Q R S T U V W X Y Z