Song name
# A B C D E F G H I J K L M N O P Q R S T U V W X Y Z

Misc Unsigned Bands - The Outback Boys - The Love Song tab

BAND:THE OUTBACK BOYS  SONG:The love song

written:by Daniel Humphreys

INTRO
____________________________________________________________________________
                                                                         X2
|---------------------------------------------------------------------------|
|---------------------------------------------------------------------------|
|---------------------------------------------------------------------------|
|--------------------2---2---2---2---2---2---2---2---0---0---0---0----------|
|----3---3---3---3----------------------------------------------------------|
|--2---2---2---2---2---2---2---2---0---0---0---0---0---0---0---0------------|
____________________________________________________________________________
____________________________________________________________________________

|--------------------------------------------------------------------------|
|--------------------------------------------------------------------------|
|--------------------------------------------------------------------------|
|----------------------------------2---2---2---2---0---0---0---0-----------|
|----3---3---3---3---3---3---3---3---3---3---3---3---3---3---3---3---------|
|--2---2---2---2---0---0---0---0-------------------------------------------|
____________________________________________________________________________

chorus
____________________________________________________________________________
                                                                       X2
|--------------------------------------------------------------------------|
|--------------------------------------------------------------------------|
|--------------------------------------------------------------------------|
|--2-2-2-2-2-2-2-2-2-2-2-2-2-2-2-2-2-2-0-0-0-0-0-0-0-0-0-0-0-0-0-0-0-0-0---|
|--3-3-3-3-3-3-3-3-3-3-3-3-3-3-3-3-3-3-3-3-3-3-3-3-3-3-3-3-3-3-3-3-3-3-3---|
|--2-2-2-2-2-2-2-2-2-0-0-0-0-0-0-0-0-0-0-0-0-0-0-0-0-0-0-2-2-2-2-2-2-2-2---|
____________________________________________________________________________

verses
____________________________________________________________________________
                                                                   X2
|--------------------------------------------------------------------------|
|--------------------------------------------------------------------------|
|--------------------------------------------------------------------------|
|-2-2-2-2-2-2-2-2-0-0-0-0-0-0-0-0-0-0-0-0-0-0-0-0-0-0-0-0-0-0--------------|
|-2-2-2-2-2-2-2-2-2-2-2-2-2-2-2-2-1-1-1-1-1-1-1-1-3-3-3-4-4-4--------------|
|-0-0-0-0-0-0-0-0-2-2-2-2-2-2-2-2-1-1-1-1-1-1-1-1-3-3-3-4-4-4--------------|
____________________________________________________________________________
Chorus----

verses---

chorus---

OUTRO:
____________________________________________________________________________


|--------------------------------------------------------------------------|
|--------------------------------------------------------------------------|
|---------------------------------------------------------------------2-2--|
|-2--2--2--2--2--2--2--2--0--0--0--0--0--0--0--0--------------3-3-2-2-2-2--|
|-2--2--2--2--2--2--2--2--2--2--2--2--2--2--2--2--1--1--3--3--3-3-2--------|
|-0--0--0--0--0--0--0--0--2--2--2--2--2--2--2--2--1--1--3--3---------------|
Tap to rate this tab
# A B C D E F G H I J K L M N O P Q R S T U V W X Y Z