Song name
# A B C D E F G H I J K L M N O P Q R S T U V W X Y Z

Misc Unsigned Bands - Dubious Pastry - Everything In Life Aint Free tab

Help us improve GuitareTab! Take a short survey!
-------------------------------------------------------------------------------
	       Everything In Life Ain't Free - Dubious Pastry
-------------------------------------------------------------------------------
Tabbed by: Noobie Jones (a.k.a. the Neffer, Pinecone, etc.)
Email:raneff@gmail.com

Tuning: EADGBE

VER. 2 (correct version)

Intro:
  C		    E               Am             Fm              C
e|-----0-------0-------0-------0-------0-------0-------0-------0-------0-----|
B|----1-1-----1-1-----0-0-----0-0----1--1-----1-1-----1-1-----1-1-----1-1----|
G|---0---0---0---0---1---1---1---1--2----2---2---2---2---2---2---2---0---0---|
D|--2-----2-2-----2-2-----2-2-----2-------2-2-----2-3-----3-3-----3-2-----2-2|
A|-3-------3-------2-------2---------------0-------3-------3-------3-------3-|
E|---------------------------------------------------------------------------|

  		    E               Am             Fm              
e|--0-------0-------0-------0-------0-------0-------0-------0-----0-00-------|
B|-1-1-----1-1-----0-0-----0-0----1--1-----1-1-----1-1-----1-1----1-11-------|
G|0---0---0---0---1---1---1---1--2----2---2---2---2---2---2---2---2-22-------|
D|-----2-2-----2-2-----2-2-----2-------2-2-----2-3-----3-3-----3--3-33-------|
A|------3-------2-------2---------------0-------3-------3-------3-3-33-------|
E|---------------------------------------------------------------------------|

chorus: C Cm C E Am Abm F F(no 1st string) repeated twice

Bridge: A type major from 3rd fret
        A type major from 8th fret
	A type major from 10th fret
	A type major from 3rd fret x 2
	A type minor from 5th fret
	A type major from 10th fret
	A type major from 3rd fret


| /  slide up
| \  slide down
| h  hammer-on
| p  pull-off
| ~  vibrato
| +  harmonic
| x  Mute note

Band website: Http://www.myspace.com/dubiouspastry
===============================================================================
Related for Dubious Pastry - Everything In Life Aint Free tab