Song name
# A B C D E F G H I J K L M N O P Q R S T U V W X Y Z

Misc Unsigned Bands - Sbbp - The Unknown Village tab

Help us improve GuitareTab! Take a short survey!
Intro:

---0-0-0-3-0-0-5-0-0-7-0-5-0-3----------------------------------|
-----------------------------5----------------------------------|
----------------------------------------------------------------|PLAY 3 TIMES
----------------------------------------------------------------|
----------------------------------------------------------------|
----------------------------------------------------------------|


Verse 1: vocals

---0-0-0-3-0-0-5-0-0-3------------------------------------------|
---------------------5------------------------------------------|
----------------------------------------------------------------|PLAY 6 TIMES
----------------------------------------------------------------|
----------------------------------------------------------------|
----------------------------------------------------------------|

Chorus:

-----------------------------------------------------3----------|
---7---x-x-x-x-x-x--5--x-x-x-x-x-x--3-x-x-x-x-x-x-0-------------|
---9---x-x-x-x-x-x--7--x-x-x-x-x-x--5-x-x-x-x-x-x-2-------------|
--------------------------------------------------2-------------|
----------------------------------------------------------------|
----------------------------------------------------------------|


Verse 2: vocals

---0-0-0-3-0-0-5-0-0-3------------------------------------------|
---------------------5------------------------------------------|
----------------------------------------------------------------|PLAY 6 TIMES
----------------------------------------------------------------|
----------------------------------------------------------------|
----------------------------------------------------------------|

Chorus:
-----------------------------------------------------3----------|
---7---x-x-x-x-x-x--5--x-x-x-x-x-x--3-x-x-x-x-x-x-0-------------|
---9---x-x-x-x-x-x--7--x-x-x-x-x-x--5-x-x-x-x-x-x-2-------------|
--------------------------------------------------2-------------|
----------------------------------------------------------------|
----------------------------------------------------------------|

Interlude:

-1-1-1----------------------------------------------------------|
-3-3-3----------------------------------------------------------|
----------------------------------------------------------------|PLAY REPETAVILY
----------------------------------------------------------------|
----------------------------------------------------------------|
----------------------------------------------------------------|


This verson was tabbed without the ending metal solo. check back soon for an updated version
Related for Sbbp - The Unknown Village tab