Guitaretab - guitar tabs
Song name
# A B C D E F G H I J K L M N O P Q R S T U V W X Y Z

Misc Unsigned Bands - 2nd2none - Sick Love tab

2nd2none  sick love


intro: (Am  C  Em  Em)
[ Tab from: http://www.guitaretab.com/m/misc-unsigned-bands/83370.html ]
---------------------------------------------0-----------/
-----1-----3-----1-----0---------1-----3-----------3-1-0-/
-------2-----2-----2---------------0-----0-----0---------/
---2-----2-----2-----2---------------2-----2-----2-------/
-0-----------------------0-0-2-3-------------------------/
---------------------------------------------------------/

-------------------------------------------------------/
---0-----1-----0-----------0---0-----1-----0-----------/
-----0-----0-----0---2-0-2-------0-----0-----0---2-0-2-/
-------2-----2-----2---------------2-----2-----2-------/
-2---------------------------2-------------------------/
-------------------------------------------------------/

verse: Am  C  G  Em

chorus: F  C  G - D
Related for 2nd2none - Sick Love tab