Guitaretab - guitar tabs
Song name
# A B C D E F G H I J K L M N O P Q R S T U V W X Y Z

Misc Unsigned Bands - Final Drive - 2000 Miles tab

Drop C

Intro
|---------------------------------------------0---------------------------|
|---------------------------------------------0---------------------------|
|-------------------------------------------------------------------------|
|-33--33543--33--33543--3--xx-3---xx-3/5-3xx-----xxxxx--3--xx-3---xx-3/5--|
|-33--33543--33--33543--3--xx-3---xx-3/5-3xx-----xxxxx--3--xx-3---xx-3/5--|
|-33--33543--33--33543--3--xx-3---xx-3/5-3xx-----xxxxx--3--xx-3---xx-3/5--|

|-----0-------------------------------0-------------------------------0---|
|-----0-------------------------------0-------------------------------0---|
|-------------------------------------------------------------------------|
|3xx-----xxxxx--3--xx-3---xx-3/5-3xx-----xxxxx--3--xx-3---xx-3/5-3xx------|
|3xx-----xxxxx--3--xx-3---xx-3/5-3xx-----xxxxx--3--xx-3---xx-3/5-3xx------|
|3xx-----xxxxx--3--xx-3---xx-3/5-3xx-----xxxxx--3--xx-3---xx-3/5-3xx------|

|--------------------------------------------|
|--------------------------------------------|
|--------------------------------------------| 4 times
|-33--33543--33--33543--22--22432--22--22432-|
|-33--33543--33--33543--22--22432--22--22432-|
|-33--33543--33--33543--22--22432--22--22432-|


|--------------------------------------------------------------------------|
|--------------------------------------------------------------------------|
|--------------------------------------------------------------------------|
|-33--33543--33--33543--22--22432--22--22432-------------------------------|
|-33--33543--33--33543--22--22432--22--22432-------------------------------|
|-33--33543--33--33543--22--22432--22--22432--3------3/5-3------3-----3/5-3|

|--------------------------0------------|
|--------------------------0------------|
|---------------------------------------|4 times
|----3--xx-3---xx-3/5-3xx-----xxxxxx----|
|----3--xx-3---xx-3/5-3xx-----xxxxxx----|
|----3--xx-3---xx-3/5-3xx-----xxxxxx----|
[ Tab from: http://www.guitaretab.com/m/misc-unsigned-bands/83377.html ]
|--------------------------------------------|
|--------------------------------------------|
|--------------------------------------------| 4 times
|-33--33543--33--33543--22--22432--22--22432-|
|-33--33543--33--33543--22--22432--22--22432-|
|-33--33543--33--33543--22--22432--22--22432-|

|--------------------------------------------------------------------------|
|--------------------------------------------------------------------------|
|--------------------------------------------------------------------------|
|-33--33543--33--33543--22--22432--22--22432-------------------------------|
|-33--33543--33--33543--22--22432--22--22432-------------------------------|
|-33--33543--33--33543--22--22432--22--22432--3------3/5-3------3-----3/5-3|

|--------------------------0------------|
|--------------------------0------------|
|---------------------------------------|5 times
|----3--xx-3---xx-3/5-3xx-----xxxxxx----|
|----3--xx-3---xx-3/5-3xx-----xxxxxx----|
|----3--xx-3---xx-3/5-3xx-----xxxxxx----|

|------------------------------|
|------------------------------|
|------------------------------|
|----33-33-33-33-2-------------|
|----33-33-33-33-2-------------|
|----33-33-33-33-2-----/7\-----|

|------------------------------------------------------|
|------------------------------------------------------|
|------------------------------------------------------|
|----33-33-33-33-2--3--------3/5-3--3--------3/5--3----|
|----33-33-33-33-2--3--------3/5-3--3--------3/5--3----|
|----33-33-33-33-2--3--------3/5-3--3--------3/5--3----|


|--------------------------0------------|
|--------------------------0------------|
|---------------------------------------|3 times
|----3--xx-3---xx-3/5-3xx-----xxxxxx----|
|----3--xx-3---xx-3/5-3xx-----xxxxxx----|
|----3--xx-3---xx-3/5-3xx-----xxxxxx----|


|----------------------------------|
|----------------------------------|
|----------------------------------|2 times
|----33-33-33-33-22-22-22----------|
|----33-33-33-33-22-22-22----------|
|----33-33-33-33-22-22-22--/7\-----|

|----------------------------------|
|----------------------------------|
|----------------------------------|
|----33-33-33-33-22-22-22----------|
|----33-33-33-33-22-22-22----------|
|----33-33-33-33-22-22-22----------|
Related for Final Drive - 2000 Miles tab
×
Final Drive - 2000 Miles