Song name
# A B C D E F G H I J K L M N O P Q R S T U V W X Y Z

Misc Unsigned Bands - Brendas Diner - Octave Ladder tab

Help us improve GuitareTab! Take a short survey!
e---------------------------------------------------------------------------|
B---------------------------------------------------------------------------|
G-------------------------------------------------------2-2-2-2-2-2-2-------|
D-------2-2-2-2-2-2-2-------------------4-4-4-4-4-4-4---0-0-0-0-0-0-0-------|
A-------0-0-0-0-0-0-0---2-2-2-2-2-2-2---2-2-2-2-2-2-2-----------------------|
E-----------------------0-0-0-0-0-0-0---------------------------------------|
              Keep Repeating till pre-chorus

e---------------------------------------------------------------------------|
B---------------------------------------------------------------------------|
G-------------------------------------------------------2-------------------|
D-------2------------------------------4----------------0-------------------|
A-------0--------------2---------------2------------------------------------|
E----------------------0----------------------------------------------------|
             Repeat 4 times    Go back to main riff  Then go to chorus

e---------------------------------------------------------------------------|
B---------------------------------------------------------------------------|
G-------------------------------------------------------2-------------------|
D-------2-----------------------------4-----------------0-0-0-0-0-0-0-------|
A-------0-0-0-0-0-0-0--2--------------2-2-2-2-2-2-2-------------------------|
E----------------------0-0-0-0-0-0-0----------------------------------------|
      P.M.............   ...........    ...........       ...........
            Repeat whole song twice

go to these places
www.myspace.com/welcometothediner
www.purevolume.com/breandasdiner
Related for Brendas Diner - Octave Ladder tab