Song name
# A B C D E F G H I J K L M N O P Q R S T U V W X Y Z

Misc Unsigned Bands - Shoreline - White Flags tab

Help us improve GuitareTab! Take a short survey!
Riff 1:  (guitar 2)

e|------------------------------------|
B|------------------------------------|
G|-2-0-2-0-2-0-2-4-2-0-0h2-0-----0----|
D|---------------------------0h2---0--|
A|------------------------------------|
E|------------------------------------|


Riff 2:  (guitar 2)

e|------------------------------------------------------------------------------|
B|------------------------------------------------------------------------------|
G|-2-0-2-0-2-0-2-4-2-0-2-0-2-0-2-0-2-4-2-0-0h2-0-----0-----3---3---2---0h2p0----|
D|-----------------------------------------------0h2---0-----0---0---0-------0--|
A|------------------------------------------------------------------------------|
E|------------------------------------------------------------------------------|

e|---------------------------------------------------------------------|
B|---------------------------------------------------------------------|
G|-2-0-2-0-2-0-2-4-2-0-2-0-2-0-2-0-2-4-2-0-0h2-0-----0----5-4-0--------|
D|-----------------------------------------------0h2---0--------0-2/4--|
A|---------------------------------------------------------------------|
E|---------------------------------------------------------------------|


*1:  Guitar 2

e|-----|
B|-10--|
G|-9---|
D|-7---|
A|-----|
E|-----|


*2:  Guitar 2

e|-----|
B|-14--|
G|-14--|
D|-14--|
A|-----|
E|-----|


If you'd like a chart with the chords, lyrics, and tabs all together just email me at bencharity@gmail.com
Related for Shoreline - White Flags tab