Song name
# A B C D E F G H I J K L M N O P Q R S T U V W X Y Z

Misc Unsigned Bands - Vanity Affair - Love Song tab

Intro/Verse

Guitar 1

e-------------------------------|
B-3---3---0---3---3-----1-0-----|
G---0---0---2---0---0-0---------|
D-------------------------------|    X2
A-3-3-3-3-2-2-3-3-3-3-2-0-------|
E-------------------------------|

Guitar 2

e-----------------------------------------------------------|
B----3-------3-------0------0------3------3------0------1-0-|
G--0--0----0--0---0---0---0--0---0--0---0--0---0--0---0-----|
D---0--0----0--0----0--0---0--0---0--0---0--0---0--0---0----|
A-3------3-------2-------2------3------3------2------0------|
E-----------------------------------------------------------|

e-2p3-3-------|
B-------------|
G-------0-----| While Guitar 1 repeats verse
D-------------|
A-------------|
E-------------|

Chorus

Guitar 1

e-----2-2p3-3-3----------2-2p3-3-3--------------|
B-3-------------0----3-------------0---3--------|
G---0-------------0----0-------------0----------|
D-----0-0---2-2----------0-0---2-2--------------|
A-3-3-----------3-3--3-3-----------3-3-3--------|
E-----------------------------------------------|

Guitar 2

e---------------------------------------------------------------------------B---|
G-7-00-7-12-11p12-12-12-77-7-00-7-7-7-12-11p12-12-12-77-7-7-5p4-4-00-5-4-4p0-0--|
D---------0--0-------------------------0--0-------------------------------------|
A-------------------------------------------------------------------------------|
E-------------------------------------------------------------------------------|


Verse 2

Guitar 1

e------------------------------------3-------|
B-3-0---3-0-------3-0---3-0---0---1-0--------|
G-----0-----0-0-2-----0-----0---2------------|
D--------------------------------------------|
A-3-3-3-3-3-3-2-2-3-3-3-3-3-3-2-2-0----------|
E--------------------------------------------|

Guitar 2

e-----------------------------------------------------------|
B----3-------3-------0------0------3------3------0------1-0-|
G--0--0----0--0---0---0---0--0---0--0---0--0---0--0---0-----|
D---0--0----0--0----0--0---0--0---0--0---0--0---0--0---0----|
A-3------3-------2-------2------3------3------2------0------|
E-----------------------------------------------------------|

e-2p3-3-------|
B-------------|
G-------0-----| While Guitar 1 repeats verse 2
D-------------|
A-------------|
E-------------|

[ Chorus ]

Bridge

Guitar 2
e-x-x-x-x-x-x--|
B-3-3-3-0-0-3--|
G-0-0-0-0-2-0--|
D-0-0-0-2-2-0--| repeat 2 times
A-0-3-0-2-0-0--|
E-3-0-3-0-0-3--|

[ Chorus ]

Guitar 1

e---------------------------3---|
B-3---3---0---3---3-----1-0-----|
G---0---0---2---0---0-0---------|
D-------------------------------|
A-3-3-3-3-2-2-3-3-3-3-2-0-------|
E-------------------------------|

Guitar 2

e-----------------------------------------------------------|
B----3-------3-------0------0------3------3------0------1-0-|
G--0--0----0--0---0---0---0--0---0--0---0--0---0--0---0-----|
D---0--0----0--0----0--0---0--0---0--0---0--0---0--0---0----|
A-3------3-------2-------2------3------3------2------0------|
E-----------------------------------------------------------|
Tap to rate this tab
 
# A B C D E F G H I J K L M N O P Q R S T U V W X Y Z