Song name
# A B C D E F G H I J K L M N O P Q R S T U V W X Y Z

Misc Unsigned Bands - Lacosse - Sinking tab

E||----------0-----------------o-----------------0----------------|
B||--------1---1-------------1---1-------------1---1--------------|
G||------2-------2---------2-------2---------0-------0------------|
D||----2-----------2-----2-----------2-----0-----------0----------|
A||--0-----------------3-----------------0---------------0--------|
E||---------------------------------------------------------------|

E||---------------------------------------------------------------|
B||--------1--------1---------------------------------------------|
G||------0--------0-----------------------------------------------|
D||----0--------0-------------------------------------------------|
A||--3--------2---------------------------------------------------|
E||---------------------------------------------------------------|
Tap to rate this tab
 
# A B C D E F G H I J K L M N O P Q R S T U V W X Y Z