Song name
# A B C D E F G H I J K L M N O P Q R S T U V W X Y Z

Misc Unsigned Bands - The Joe Pirret Experience - Ride On tab

----------------------------------------------------------------------------
	       Ride On Intro - The Joe Pirret Experience
----------------------------------------------------------------------------
Tabbed by: Joe Pirret
Email: pirret@btinternet.com

Tuning: Standard


e|------------------------------------8--11/13--11--13--11--8--11--8--11--8-|
B|------------------8--11--8----8--11---------------------------------------|
G|----8-------8--10----------10---------------------------------------------|
D|-10---8--10---------------------------------------------------------------|
A|--------------------------------------------------------------------------|
E|--------------------------------------------------------------------------|

e|-11--8----8----8----8-||
B|-------11---11---11---||
G|----------------------||
D|----------------------||
A|----------------------||
E|----------------------||


Thats it :)
Tap to rate this tab
# A B C D E F G H I J K L M N O P Q R S T U V W X Y Z