Song name
# A B C D E F G H I J K L M N O P Q R S T U V W X Y Z

Misc Unsigned Bands - Lets Redefine - Ryan Monk tab

-----------------------------------------------------------------------------
			     Lets Redefine - Ryan Monk
-----------------------------------------------------------------------------
Tabbed by: Ryan Monk
Email: thenewamericanclassic@hotmail.com

Tuning: Standard

INTRO


e|-------------------7--------------------------------------7----------------|
B|------5----------------5---------5----------5------------------5-------5---|
G|----------6--------------------------------------6-------------------------|
D|--------------6-------------6--------------------------6-----------6-------|
A|--4------------------------------------4-----------------------------------|
E|---------------------------------------------------------------------------|

e|--------------0-----------------4-------------2-----------------------------|
B|------0----------0-------0----------0-------------0---------2---------------|
G|---------2-----------2------------------2-------------2-----------4---------|
D|-----------2----------------------------------------------------------------|
A|--0-------------------------------------------------------------------------|
E|----------------------------------------------------------------------------|

e|-------------------7--------------------------------------7----------------|
B|------5----------------5---------5----------5------------------5-------5---|
G|----------6--------------------------------------6-------------------------|
D|--------------6-------------6--------------------------6-----------6-------|
A|--4------------------------------------4-----------------------------------|
E|---------------------------------------------------------------------------|

e|--------------0-----------------4-------------2-----------------------------|
B|------0----------0-------0----------0-------------0---------2---------------|
G|---------2-----------2------------------2-------------2-----------4---------|
D|-----------2----------------------------------------------------------------|
A|--0-------------------------------------------------------------------------|
E|----------------------------------------------------------------------------|

e|------------------0-------------------------------------0--------------------|
B|------0---------------0-----0----------0---------------------0--------0------|
G|-----------4-------------4------------------4---------------------4----------|
D|--------------4---------------------------------4----------------------------|
A|--2-------------------------------2------------------------------------------|
E|-----------------------------------------------------------------------------|

e|--------------0-----------------4-------------2-----------------------------|
B|------0----------0-------0----------0-------------0---------2---------------|
G|---------2-----------2------------------2-------------2-----------4---------|
D|-----------2----------------------------------------------------------------|
A|--0-------------------------------------------------------------------------|
E|----------------------------------------------------------------------------|

e|------------------0-------------------------------------0------------------|
B|------0---------------0-----0----------0---------------------0--------0----|
G|-----------4-------------4------------------4---------------------4--------|
D|--------------4---------------------------------4--------------------------|
A|--2-------------------------------2----------------------------------------|
E|---------------------------------------------------------------------------|


e|-----------------------------------------0---------------------0------------|
B|------------0--------------------------------------0-----------0------------|
G|---------------------2-----------------------------------------2------------|
D|-------------------------------2-------------------------------2------------|
A|-----0---------------------------------------------------------0------------|
E|----------------------------------------------------------------------------|

VERSE
(the melody is on the staff, the chords are above)

          C#Min                                            Asus2
F|--------------------------------------------------------------------------
E|                                          0
D|--------------------------------------------------------------------------
C|  #0
B|-----------------------------0--------------------------0-----------------
A|              0
G|--------------------------------------------------------------------------
F|
E|--------------------------------------------------------------------------


         Bsus4                                              Asus2
f|---------------------------------------------------------------------------
e|
d|---------------------------------------------------------------------------
c|                       #0
b|------------------------------------------0--------------------------------
a|                                                       0
g|--------#0-----------------------------------------------------------------
f|
e|---------------------------------------------------------------------------

CHORUS
(same as verse, when it comes to layout)

     E                Bsus4                C#Min             Asus2
f|---------------------------------------------------------------------------
e|  0                                     0
d|---------------------------------------------------------------------------
c|                     #0                                  #0
b|-----------0------------------------------------0--------------------------
a|                                0                               0
g|---------------------------------------------------------------------------
f|
e|---------------------------------------------------------------------------

BRIDGE
(same layout as verse,and chorus)

       C#Min        Em      Bsus4     A        G#Maj          F#Maj
f|---------------------------------------------------------------------------
e|
d|---------------------------------------------------------------------------
c| #0                            #0
b|---------0-----------------------------------0-----------------------------
a|                                                       0
g|--------------#0-----------------------------------------------------------
f|                      #0
e|---------------------------------------------------------------------------
Tap to rate this tab
# A B C D E F G H I J K L M N O P Q R S T U V W X Y Z