Song name
# A B C D E F G H I J K L M N O P Q R S T U V W X Y Z

Misc Unsigned Bands - Jdawg And Associates - Institution tab

Apocasition/Jdawg - Institution

this is an old song i made up a while back and started to tab it out for a bass player,
we quit jamming so i didn't finish it ..... well i finally finished it tonight. this is
fun intermediate song.  it looks like everything after the bridge isn't lined up right,
if you have any problems reading this tab paste it into notepad. e-mail me if you want
use this for any reason.  jdawg5tl@yahoo.com. comments, questions and feedback are
 keep it metal


-  John

Intro:----------------------------------------|
----------------------------------------------|
-----------------------------7-6--------------|
----7--5-5(7)-5-------7--5-5------------------|
5~~5--------------5~~5------------------------|
---------------------------------     X     2-|
Verse
|---------------------------------------------|
|---------------------------------------------|
|---------------------------------------------|
|----------------------------------------77-6~|
|---5--7/8-77-6h(7)-5-----5--7/8-77-6(h)7-----|
|-00-------------------00---------------------|

|-------------------------------------------------|
|-------------------------------------------------|
|-------------------------------------------------|
|-------------------------------------------7--5~-|
|-----5--7/8-77-6h(7)-5------5--7/8-77-6h(7)------|
|-00---------------------00-----------------------|

main Riff (p.m.)

|----------------------------------------------------------------------|
|----------------------------------------------------------------------|
|----------------------------------------------------------------------|
|----------------------------------------------------------------------|
|----7-7-9-9-10-10----7-7-9-9-8-8-----7-7-9-9-10-10-9-9-10-10-8-8-7-7--|
|-0-0--------------0-0------------0-0----------------------------------|


|----------------------------------------------------------------------|
|----------------------------------------------------------------------|
|----------------------------------------------------------------------|
|----------------------------------------------------------------------|(release p.m.
this part    )
|----7-7-9-9-10-10----7-7-9-9-8-8-----7-7-9-9-10-10-9-9-10-10-8-8-7-7--|
|-0-0--------------0-0------------0-0----------------------------------|

Bridge

|-----------------------------------------------|
|-----------------------------------------------|
|-----------------------------------------------|
|--------------------------------------------10-|
|--7--7---9-9-9-------9--9--9-10-10-10--9h(10)--|
|-0-00-0-0-0-0-00~---8-88-88--------------------|

|-----------------------------------------------|
|-----------------------------------------------|
|-----------------------------------------------|
|-----------------------------------------------|
|--7--7---9-9-9-------9--9--9-10-10-10--9h(10)8b|
|-0-00-0-0-0-0-00~---8-88-88--------------------|


Chorus/Riff (open strings in '( )' are palm muted)

|-------------------------------------------------------------------------------------------------------------|
|---------16-16-16-16h(17)-16--------11-11-11-11h(12)-11-------14-14-14-14h(15)-14-----------7-7-7-7-7--7~----|
|---------15-15-15-15h(16)-15--------9---9--9--9h(10)-9--------12-12-12-12h(13)-12-----------5-5-5-5-5--5~----|
|-------------------------------------------------------------------------------------------------------------|
|-------------------------------------------------------------------------------------------------------------|
|-0-(00)-0--------------------0(000)0-------------------0(000)0-------------------0(00)0(0)0~-----------------|


|------------------------------------------------------------------------------------|
|---------16-16~16\15-15-15/17-17-17/18^18-18b+^~--------11-11\9-9-9/10-10-10\8-8-8--|
|---------15-15~15\14-14-14/16-16-16/17^17-17b+~---------9-- 9\7-7-7/ 8-8--8\-6-6-6--|
|------------------------------------------------------------------------------------|
|------------------------------------------------------------------------------------|
|-(000)0~-----------------------------------------(000)0-----------------------------|
 3     (  emphasize bend more and more every time through  )


|-------------------------------------------------------------------------------------------------------------------------|
|--------16-16~16/18-18-18\17-17-17\14-14-14--------11-11\9-9-9/8-8-8\10-10-10^b~--10-9h(10)9-8---------------------------|
|--------15-15~15/17-17-17\18-18-18\15-15-15--------9-- 9\7-7-7/6-6-6\-7--7--7^b~- ------------10-10-10-10-10-10--9*~-----|
|-------------------------------------------------------------------------------------------------------------------------|
|-------------------------------------------------------------------------------------------------------------------------|
|-(000)0~------------------------------------(000)0-----------------------------------------------------------------------|

repeat all but intro


main riff is exit


end


notes

p.m.  -  palm mute (also the '(0)' in this song are palm muted)
h  -  hammer
(#)  -  hammer on note
b  -  bend
~  -  hold note
\--/  -  slide to/from
*  -  vibrato

usage

im probably going to use this in the future, but for those just using it to practice
its fine by me
Tap to rate this tab
 
# A B C D E F G H I J K L M N O P Q R S T U V W X Y Z