Song name
# A B C D E F G H I J K L M N O P Q R S T U V W X Y Z

Misc Unsigned Bands - 5 Degrees Kelvin - Get Out Of My Life tab

Help us improve GuitareTab! Take a short survey!
5dgk are a great unsigned band this is a more accurate tab
than the last which was named wrong (get lost) when it is actually
Get out of my life


intro:
-----------------------------------------------|
-----------------------------------------------|
-----------------------------------------------|
--77777777-22222222-99999999-77777777----------| repeat 3x
--77777777-22222222-99999999-77777777----------|
--55555555-00000000-77777777-55555555----------|
verse:
-----------------------------------------------|
-----------------------------------------------|
-----------------------------------------------|
--7----7----2----2----9----9----7--------------| repeat 3x
--7----7----2----2----9----9----7--------------|
--5----5----0----0----7----7----5--------------|
Chorus:
------------------------------------------------|
------3---555--777--333-------------------------|
--2-2-2---444--666--222-------------------------|
--2-2-------------------------------------------| repeat 4x
------------------------------------------------|
------------------------------------------------|
verse:
-----------------------------------------------|
-----------------------------------------------|
-----------------------------------------------|
--7----7----2----2----9----9----7--------------| repeat 3x
--7----7----2----2----9----9----7--------------|
--5----5----0----0----7----7----5--------------|
Chorus:
------------------------------------------------|
------3---555--777--333-------------------------|
--2-2-2---444--666--222-------------------------|
--2-2-------------------------------------------| repeat 4x
------------------------------------------------|
------------------------------------------------|
verse:
-----------------------------------------------|
-----------------------------------------------|
-----------------------------------------------|
--7----7----2----2----9----9----7--------------| repeat 3x
--7----7----2----2----9----9----7--------------|
--5----5----0----0----7----7----5--------------|
Chorus:
------------------------------------------------|
------3---555--777--333-------------------------|
--2-2-2---444--666--222-------------------------|
--2-2-------------------------------------------| repeat 4x
------------------------------------------------|
------------------------------------------------|
Ending:
--------2--|
----3---3--|
--2-2---2--|
--2--------|
-----------|
-----------|

and thats it enjoy playing
Related for 5 Degrees Kelvin - Get Out Of My Life tab