Song name
# A B C D E F G H I J K L M N O P Q R S T U V W X Y Z

Misc Unsigned Bands - Frantic State - Vindicate tab

--------------------------------------------------
          VINDICATE BY FRANTIC STATE
--------------------------------------------------

Standard Tuning.

Frantic State can be found at myspace.com/franticstate . VINDICATE is a demo song, and 
usually have it up for download.

KEY
~ - ring
= - strum
/ - slide
h - hammer
p - pull off
lts - listen to the song


INTRO                 (continous strumming, lts, you can figure it out)
E------------------------------------------------------------------------------------------------|
B------------------------------------------------------------------------------------------------|
G--6~----------6~--------6=================------------------6=================------------------|
D--6~--4~--2~--6~--4~----6=================4=================6=================4===============--|
A--4~--4~--2~--4~--4~----4=================4=================4=================4===============--|
e------2~--0~------2~----------------------2=================------------------2===============--|


END OF INTRO
E---------------------------------------------|
B---------------------------------------------|
G--6-6-6-6-6----------------------------------| 2X
D--6-6-6-6-6--7-7-7-7-7--9-9-9-9-9-----2---9--|
A--4-4-4-4-4--7-7-7-7-7--9-9-9-9-9-----2---9--|
e-------------5-5-5-5-5--7-7-7-7-7-----0---7--|


VERSE 1
E-----------------------------------|
B-----------------------------------|
G--6-6-6----------------------------|
D--6-6-6---7-7-7---9-9-9-----2---9--| 2X
A--4-4-4---7-7-7---7-7-7-----2---9--|
e----------5-5-5---7-7-7-----0---7--|

E-------------------------------------------|
B-------------------------------------------|
G-6-6-6-6-6---------------------------------|
D-6-6-6-6-6--7-7-7-7-7--9-9-9-9-9-----2---9-|   3X
A-4-4-4-4-4--7-7-7-7-7--9-9-9-9-9-----2---9-|
e------------5-5-5-5-5--7-7-7-7-7-----0---7-|


CHORUS 1
E-------------------------------------|
B-------------------------------------|
G-6=====/8~/9====13==/11===/13==/6====|
D-6=====/8~/9====13==/11===/13==/6====|
A-4=====/6~/7====11==/9====/11==/4====|
e-------------------------------------|


(extremely brief pause)


VERSE 2
E-----------------------------------|
B-----------------------------------|
G--6-6-6----------------------------|
D--6-6-6---7-7-7---9-9-9-----2---6--| 2X
A--4-4-4---7-7-7---7-7-7-----2---6--|
e----------5-5-5---7-7-7-----0---4--|

E-------------------------------------------|
B-------------------------------------------|
G-6-6-6-6-6---------------------------------|
D-6-6-6-6-6--7-7-7-7-7--9-9-9-9-9-----2---6-|   3X
A-4-4-4-4-4--7-7-7-7-7--9-9-9-9-9-----2---6-|
e------------5-5-5-5-5--7-7-7-7-7-----0---4-|

CHORUS 2
E-------------------------------------|
B-------------------------------------|
G-6=====/8~/9====13==/11===/13==/6====|
D-6=====/8~/9====13==/11===/13==/6====|    2X
A-4=====/6~/7====11==/9====/11==/4====|
e-------------------------------------|


SOLO  (verses are played on top of this. they are shortened to one or two riffs each. lts.)
E----------------|
B-2~/4~/5~/9~/7~-|
G----------------|
D----------------|   3X
A----------------|
e---------------|

E-------------------------------------------------------------------------------|
B--2-0-2-0-2-5--2-0-2-0-2-5--2-0-2-0-2-5--2-0-2-0-2-5--2-0-2-0-2-5--2-0-2-0-2-5-|
G-------------------------------------------------------------------------------|
D-------------------------------------------------------------------------------|
A-------------------------------------------------------------------------------|
e-------------------------------------------------------------------------------|

E----------------------------------------------------------------------|
B---2-2-2-2-2-2-2/4-4/5-5-5-5-5-5-5/9-9-9-9-9/7-7-7-7-7/9/10/9/2-2-2-2-|
G----------------------------------------------------------------------|
D----------------------------------------------------------------------|
A----------------------------------------------------------------------|
e----------------------------------------------------------------------|


CHORUS
E-------------------------------------|
B-------------------------------------|
G-6=====/8~/9====13==/11===/13==/6====|
D-6=====/8~/9====13==/11===/13==/6====|
A-4=====/6~/7====11==/9====/11==/4====|
e-------------------------------------|

(riffs are played on top of this)
E----------------------------------------------------------------------|
B---2-2-2-2-2-2-2/4-4/5-5-5-5-5-5-5/9-9-9-9-9/7-7-7-7-7/9/10/9/2-2-2-2-|
G----------------------------------------------------------------------|
D----------------------------------------------------------------------|
A----------------------------------------------------------------------|
e----------------------------------------------------------------------|

(solo part is played beneath this)
E-------------------------------------|
B-------------------------------------|
G-6=====/8~/9====13==/11===/13==/6====|
D-6=====/8~/9====13==/11===/13==/6====|
A-4=====/6~/7====11==/9====/11==/4====|
e-------------------------------------|
Tap to rate this tab
 
# A B C D E F G H I J K L M N O P Q R S T U V W X Y Z