Song name
# A B C D E F G H I J K L M N O P Q R S T U V W X Y Z

Misc Unsigned Bands - Frantic State - Love And Fear tab

-------------------------------------------------
       LOVE AND FEAR - FRANTIC STATE
-------------------------------------------------

Frantic State can be found at myspace.com/franticstate . The song is simple, and it's 
found at their myspace site for download, free of course.

It's in Drop D. Simple song...

Intro
E---------------------------------------------|
B---------------------------------------------|
G---------------------------------------------|
D-3-3-3---11-11-11---8-8-8---1-1-1------------|
A-3-3-3---11-11-11---8-8-8---1-1-1------------|
D-3-3-3---11-11-11---8-8-8---1-1-1------------|

Verse
E------------------------------------------------|
B------------------------------------------------|
G------------------------------------------------|
D-x-x-x-x-x-x-x-x-x-x-x-x-x-x-x-x-x-x-x-x--------|
A-x-x-x-x-x-x-x-x-x-x-x-x-x-x-x-x-x-x-x-x--------|
D-x-x-x-x-x-x-x-x-x-x-x-x-x-x-x-x-x-x-x-x--------|

Chorus
E-------------------------------------------------|
B-------------------------------------------------|
G-------------------------------------------------|
D-3-3-3-3---6-6-6-6---8-8-8-8--11-11-11-----------|
A-3-3-3-3---6-6-6-6---8-8-8-8--11-11-11-----------|
D-3-3-3-3---6-6-6-6---8-8-8-8--11-11-11-----------|

Verse
E------------------------------------------------|
B------------------------------------------------|
G------------------------------------------------|
D-x-x-x-x-x-x-x-x-x-x-x-x-x-x-x-x-x-x-x-x--------|
A-x-x-x-x-x-x-x-x-x-x-x-x-x-x-x-x-x-x-x-x--------|
D-x-x-x-x-x-x-x-x-x-x-x-x-x-x-x-x-x-x-x-x--------|


Chorus
E-------------------------------------------------|
B-------------------------------------------------|
G-------------------------------------------------|
D-3-3-3-3---6-6-6-6---8-8-8-8--11-11-11-----------|
A-3-3-3-3---6-6-6-6---8-8-8-8--11-11-11-----------|
D-3-3-3-3---6-6-6-6---8-8-8-8--11-11-11-----------|

Bridge/Solo
E-------------------------------------------------|
B-------------------------------------------------|
G-------------------------------------------------|
D-3/3/x/3/3/3/3/3---11/11/11/11/11/11-------------|
A-3/3/x/3/3/3/3/3---11/11/11/11/11/11-------------|
D-3/3/x/3/3/3/3/3---11/11/11/11/11/11-------------|

Pre-Chorus/ End Chorus/ Outro
E--------------------------------------------------|
B--------------------------------------------------|
G--------------------------------------------------|
D-3-3-3-3-3-8-8-8-8-8-11-11-11-11-8-8-8-8----------|
A-3-3-3-3-3-8-8-8-8-8-11-11-11-11-8-8-8-8----------|
D-3-3-3-3-3-8-8-8-8-8-11-11-11-11-8-8-8-8----------|
Tap to rate this tab
# A B C D E F G H I J K L M N O P Q R S T U V W X Y Z