Song name
# A B C D E F G H I J K L M N O P Q R S T U V W X Y Z

Misc Unsigned Bands - Hot Box - Life Will Change tab

-----------------------------------------------------------------------
			     Life Will Change Intro – Hot Box
-----------------------------------------------------------------------
Tabbed by: HotBox#1fan
Email: ~ I don’t know. :P

This song is really good. The band is Canadian and hot. There lead singer and lead
both speak French, what rock stars. The drummer speaks Chinese very well. Anyway, the lead
wrote the lyrics after eating his mom’s homemade quiches. The drummer once 
in English)”I am cool and I pee my pants every day because I suck”. All in all, this is a
tab of the intro to this AWESOME song!

Tuning: Standard

~Guitar 2~ (Intro)
e|---------------------------------------------------------------------|
B|---------------------------------------------------------------------|
G|---------------------------------------------------------------------|
D|--------------------------------5~-7-7-7-7-7---5~-7-7-7-7-5----X2----|
A|--------------------------------5~-7-7-7-7-5---5~-7-7-7-7-5----------|
E|--3~-5-5-5-5-5---3~-5-5-5-5-5---3~-5-5-5-5-5---3~-5-5-5-5-5----------|

~Guitar 1~ (Played with Guitar 2)
e|---------------------------------------------------------------------|
B|---------------------------------------------------------------------|
G|---------------------------------------------------------------------|
D|--------------------------------5~-7-7-7-7-5---5~-7-7-7-7-5----X2----|
A|--------------------------------5~-7-7-7-7-5---5~-7-7-7-7-5----------|
E|--------------------------------3~-5-5-5-5-5---3~-5-5-5-5-5----------|
Tap to rate this tab
# A B C D E F G H I J K L M N O P Q R S T U V W X Y Z