Song name
# A B C D E F G H I J K L M N O P Q R S T U V W X Y Z

Misc Unsigned Bands - Hadji And The Turbans - Circle City Blues tab

Hadji and the Turbans

 -Circle City Blues

          standard tuning(EADGBe)


intro
E------------8-6------------8-----------6-8-|  (x4)
A--8-6-5-6-5------8-6-5-6-5------8--6-5-----|
D-------------------------------------------|
G-------------------------------------------|
B-------------------------------------------|
e-------------------------------------------|


this part has an up-beat strum pattern
just listen to the song to get the rythym

E-----------11x1x1x1-33x3x3x3------------|   (x3)
A--11x1x1x1-33x3x3x3-55x5x5x5-66x6x6x6---|
D--33x3x3x3-33x3x3x3-55x5x5x5-88x8x8x8---|
G--33x3x3x3-------------------88x8x8x8---|
B----------------------------------------|
e----------------------------------------|

distortion kicks in here

E-----------11111111-33333333------------|   (x4)
A--11111111-33333333-55555555-66666666---|
D--33333333-33333333-55555555-88888888---|
G--33333333-------------------88888888---|
B----------------------------------------|
e----------------------------------------|

little "guitar solo" part

E-------------------------------------|   (x4)
A--88888888-6666-55h6-8---------------|
D-------------------------------------|
G-------------------------------------|
B-------------------------------------|
e-------------------------------------|

let it ring while the bass plays

E-------------------------------------|   (x2)
A--1----------------------------------|
D--3----------------------------------|
G--3----------------------------------|
B-------------------------------------|
e-------------------------------------|

E-----------11111111-33333333------------|   (x2)
A--11111111-33333333-55555555-66666666---|
D--33333333-33333333-55555555-88888888---|
G--33333333-------------------88888888---|
B----------------------------------------|
e----------------------------------------|

RAP INTERLUDE (x2)

E-----------11111111-33333333------------|   (x2)
A--11111111-33333333-55555555-66666666---|
D--33333333-33333333-55555555-88888888---|
G--33333333-------------------88888888---|
B----------------------------------------|
e----------------------------------------|


tabbed by Redsage
Tap to rate this tab
# A B C D E F G H I J K L M N O P Q R S T U V W X Y Z