Song name
# A B C D E F G H I J K L M N O P Q R S T U V W X Y Z

Misc Unsigned Bands - Konspiracy - Only One tab

Konspiracy
Only One
Diary (2007)

Timing: 4/4

Sorry about the last one the solo cut off. 100 % correct now!!!

Tuning: D G C F A D
(Down A whole Step)

Intro (Guitar 1)

|---------------------------------------|
|-----------3------------------3--------|
|-----0-------0---0-------0------0---0--|
|---2---2-------2-------4---4------4----|
|-3-------------------5-----------------|
|---------------------------------------|
                                            
|----------------------------------------|
|------------3------------------3--------|
|-------0------0---0-------0------0---0--|
|-----2---2------2-------2---2------2----|
|----------------------------------------|
|-0-------------------0------------------|

|---------------------------------------|
|-----------3------------------3--------|
|-----0-------0---0-------0------0---0--|
|---2---2-------2-------4---4------4----|
|-3-------------------5-----------------|
|---------------------------------------|
                                            
|----------------------------------------|
|------------3------------------3--------|
|-------0------0---0-------0------0---0--|
|-----2---2------2-------2---2------2----|
|----------------------------------------|
|-0-------------------0------------------|

|---------------------------------------|
|-----------3------------------3--------|
|-----0-------0---0-------0------0---0--|
|---2---2-------2-------4---4------4----|
|-3-------------------5-----------------|
|---------------------------------------|
                                            
|----------------------------------------|
|------------3------------------3--------|
|-------0------0---0-------0------0---0--|
|-----2---2------2-------2---2------2----|
|----------------------------------------|
|-0-------------------0------------------|

|---------------------------------------|
|-----------3------------------3--------|
|-----0-------0---0-------0------0---0--|
|---2---2-------2-------4---4------4----|
|-3-------------------5-----------------|
|---------------------------------------|
                                            
|-----------------------------------------|
|------------3-------3------3------3------|
|-------0------0-------0------0------0----|
|-----2---2------2-------2------2------2--|
|-----------------------------------------|
|-0---------------------------------------|

Intro (Guitar 2) Let Ring

|-------------------------------------|
|-12N.H.---------------7N.H.----------|
|---------12N.H.---------------7N.H.--|
|-------------------------------------|
|-------------------------------------|
|-------------------------------------|

                                       
|------------------------------------|
|-5N.H.---------7N.H.----------------|
|--------5N.H.---------7N.H.---------|
|------------------------------------|
|------------------------------------|
|------------------------------------|

|-------------------------------------|
|-12N.H.---------------7N.H.----------|
|---------12N.H.---------------7N.H.--|
|-------------------------------------|
|-------------------------------------|
|-------------------------------------|

                                       
|------------------------------------|
|-5N.H.---------7N.H.----------------|
|--------5N.H.---------7N.H.---------|
|------------------------------------|
|------------------------------------|
|------------------------------------|

|-------------------------------------|
|-12N.H.---------------7N.H.----------|
|---------12N.H.---------------7N.H.--|
|-------------------------------------|
|-------------------------------------|
|-------------------------------------|

                                       
|------------------------------------|
|-5N.H.---------7N.H.----------------|
|--------5N.H.---------7N.H.---------|
|------------------------------------|
|------------------------------------|
|------------------------------------|

|-------------------------------------|
|-12N.H.---------------7N.H.----------|
|---------12N.H.---------------7N.H.--|
|-------------------------------------|
|-------------------------------------|
|-------------------------------------|

                                       
|------------------------------------|
|-5N.H.---------7N.H.----------------|
|--------5N.H.---------7N.H.---------|
|------------------------------------|
|------------------------------------|
|------------------------------------|

Verse (Guitar 1)

|---------------------------------------|
|-----------3------------------3--------|
|-----0-------0---0-------0------0---0--|
|---2---2-------2-------4---4------4----|
|-3-------------------5-----------------|
|---------------------------------------|
                                            
|----------------------------------------|
|------------3------------------3--------|
|-------0------0---0-------0------0---0--|
|-----2---2------2-------2---2------2----|
|----------------------------------------|
|-0-------------------0------------------|

|---------------------------------------|
|-----------3------------------3--------|
|-----0-------0---0-------0------0---0--|
|---2---2-------2-------4---4------4----|
|-3-------------------5-----------------|
|---------------------------------------|
                                            
|----------------------------------------|
|------------3------------------3--------|
|-------0------0---0-------0------0---0--|
|-----2---2------2-------2---2------2----|
|----------------------------------------|
|-0-------------------0------------------|

|---------------------------------------|
|-----------3------------------3--------|
|-----0-------0---0-------0------0---0--|
|---2---2-------2-------4---4------4----|
|-3-------------------5-----------------|
|---------------------------------------|
                                            
|----------------------------------------|
|------------3------------------3--------|
|-------0------0---0-------0------0---0--|
|-----2---2------2-------2---2------2----|
|----------------------------------------|
|-0-------------------0------------------|

|---------------------------------------|
|-----------3------------------3--------|
|-----0-------0---0-------0------0---0--|
|---2---2-------2-------4---4------4----|
|-3-------------------5-----------------|
|---------------------------------------|

|---------------------------------------|
|---------------------------------------|
|---------------------------------------|
|------2-2-2-2-2-2-2-2-2-2-2-2-2-2-2-2--|
|------2-2-2-2-2-2-2-2-2-2-2-2-2-2-2-2--|
|-/12/-0-0-0-0-0-0-0-0-0-0-0-0-0-0-0-0--|
       * * * * * * * * * 
         ^-Slowly release from Palm Mute)

Verse (Guitar 2)

|-------------------------------------|
|-12N.H.---------------7N.H.----------|
|---------12N.H.---------------7N.H.--|
|-------------------------------------|
|-------------------------------------|
|-------------------------------------|

                                      
|------------------------------------|
|-5N.H.---------7N.H.----------------|
|--------5N.H.---------7N.H.---------|
|------------------------------------|
|------------------------------------|
|------------------------------------|

|-------------------------------------|
|-12N.H.---------------7N.H.----------|
|---------12N.H.---------------7N.H.--|
|-------------------------------------|
|-------------------------------------|
|-------------------------------------|

                                       
|------------------------------------|
|-5N.H.---------7N.H.----------------|
|--------5N.H.---------7N.H.---------|
|------------------------------------|
|------------------------------------|
|------------------------------------|

|-------------------------------------|
|-12N.H.---------------7N.H.----------|
|---------12N.H.---------------7N.H.--|
|-------------------------------------|
|-------------------------------------|
|-------------------------------------|

                                       
|------------------------------------|
|-5N.H.---------7N.H.----------------|
|--------5N.H.---------7N.H.---------|
|------------------------------------|
|------------------------------------|
|------------------------------------|

|-------------------------------------|
|-12N.H.---------------7N.H.----------|
|---------12N.H.---------------7N.H.--|
|-------------------------------------|
|-------------------------------------|
|-------------------------------------|

|---------------------------------------|
|---------------------------------------|
|---------------------------------------|
|------2-2-2-2-2-2-2-2-2-2-2-2-2-2-2-2--|
|------2-2-2-2-2-2-2-2-2-2-2-2-2-2-2-2--|
|-/12/-0-0-0-0-0-0-0-0-0-0-0-0-0-0-0-0--|
       * * * * * * * * * 
         ^-Slowly release from Palm Mute)
                                       
Chorus (Guitar 1)

|--------------------------------|
|--------------------------------|
|-5----5--5--5-7--7--7--7-7-7-7--|
|-5----5--5--5-7--7--7--7-7-7-7--|
|-3----3--3--3/5--5--5--5-5-5-5--|
|--------------------------------|

|--------------------------------|
|--------------------------------|
|--------------------------------|
|-2----2--2--2-2--2--2--2-2-2-2--|
|-2----2--2--2-2--2--2--2-2-2-2--|
|-0----0--0--0-0--0--0--0-0-0-0--|

|--------------------------------|
|--------------------------------|
|-5----5--5--5-7--7--7--7-7-7-7--|
|-5----5--5--5-7--7--7--7-7-7-7--|
|-3----3--3--3/5--5--5--5-5-5-5--|
|--------------------------------|

|--------------------------------|
|--------------------------------|
|--------------------------------|
|-2----2--2--2-2--2--2--2-2-2-2--|
|-2----2--2--2-2--2--2--2-2-2-2--|
|-0----0--0--0-0--0--0--0-0-0-0--|

|--------------------------------|
|--------------------------------|
|-5----5--5--5-7--7--7--7-7-7-7--|
|-5----5--5--5-7--7--7--7-7-7-7--|
|-3----3--3--3/5--5--5--5-5-5-5--|
|--------------------------------|

|--------------------------------|
|--------------------------------|
|--------------------------------|
|-2----2--2--2-2--2--2--2-2-2-2--|
|-2----2--2--2-2--2--2--2-2-2-2--|
|-0----0--0--0-0--0--0--0-0-0-0--|

|--------------------------------|
|--------------------------------|
|-5----5--5--5-7--7--7--7-7-7-7--|
|-5----5--5--5-7--7--7--7-7-7-7--|
|-3----3--3--3/5--5--5--5-5-5-5--|
|--------------------------------|

|----------------------------------|
|----------------------------------|
|----------------------------------|
|-2-2-2-2-2-2-2-2-2-2-2-2-2-2-2-2--|
|-2-2-2-2-2-2-2-2-2-2-2-2-2-2-2-2--|
|-0-0-0-0-0-0-0-0-0-0-0-0-0-0-0-0--|
       
Chorus (Guitar 2)

|--------------------------------|
|--------------------------------|
|-5----5--5--5-7--7--7--7-7-7-7--|
|-5----5--5--5-7--7--7--7-7-7-7--|
|-3----3--3--3/5--5--5--5-5-5-5--|
|--------------------------------|

|--------------------------------|
|--------------------------------|
|--------------------------------|
|-2----2--2--2-2--2--2--2-2-2-2--|
|-2----2--2--2-2--2--2--2-2-2-2--|
|-0----0--0--0-0--0--0--0-0-0-0--|

|--------------------------------|
|--------------------------------|
|-5----5--5--5-7--7--7--7-7-7-7--|
|-5----5--5--5-7--7--7--7-7-7-7--|
|-3----3--3--3/5--5--5--5-5-5-5--|
|--------------------------------|

|--------------------------------|
|--------------------------------|
|--------------------------------|
|-2----2--2--2-2--2--2--2-2-2-2--|
|-2----2--2--2-2--2--2--2-2-2-2--|
|-0----0--0--0-0--0--0--0-0-0-0--|

|----------------------------------|
|----------------------------------|
|-5-5-5-5-5-5-5-5-7-7-7-7-7-7-7-7--|
|-x-x-x-x-x-x-x-x-x-x-x-x-x-x-x-x--|
|-3-3-3-3-3-3-3-3-5-5-5-5-5-5-5-5--|
|----------------------------------|

|-------------------------------------------|
|-------------------------------------------|
|-9-9-9-9-9-9-9-9-12-12-12-12-11-11-11-7-7--|
|-x-x-x-x-x-x-x-x--x--x--x--x-x--x--x--x-x--|
|-7-7-7-7-7-7-7-7-10-10-10-10-9--9--9--5-5--|
|-------------------------------------------|

|----------------------------------|
|----------------------------------|
|-5-5-5-5-5-5-5-5-7-7-7-7-7-7-7-7--|
|-x-x-x-x-x-x-x-x-x-x-x-x-x-x-x-x--|
|-3-3-3-3-3-3-3-3-5-5-5-5-5-5-5-5--|
|----------------------------------|

|----------------------------------|
|----------------------------------|
|----------------------------------|
|-2-2-2-2-2-2-2-2-2-2-2-2-2-2-2-2--|
|-2-2-2-2-2-2-2-2-2-2-2-2-2-2-2-2--|
|-0-0-0-0-0-0-0-0-0-0-0-0-0-0-0-0--|
       
Verse 2 (Guitar 1)

|---------------------------------------|
|-----------3------------------3--------|
|-----0-------0---0-------0------0---0--|
|---2---2-------2-------4---4------4----|
|-3-------------------5-----------------|
|---------------------------------------|
                                            
|----------------------------------------|
|------------3------------------3--------|
|-------0------0---0-------0------0---0--|
|-----2---2------2-------2---2------2----|
|----------------------------------------|
|-0-------------------0------------------|

|---------------------------------------|
|-----------3------------------3--------|
|-----0-------0---0-------0------0---0--|
|---2---2-------2-------4---4------4----|
|-3-------------------5-----------------|
|---------------------------------------|
                                            
|----------------------------------------|
|------------3------------------3--------|
|-------0------0---0-------0------0---0--|
|-----2---2------2-------2---2------2----|
|----------------------------------------|
|-0-------------------0------------------|

|---------------------------------------|
|-----------3------------------3--------|
|-----0-------0---0-------0------0---0--|
|---2---2-------2-------4---4------4----|
|-3-------------------5-----------------|
|---------------------------------------|
                                            
|----------------------------------------|
|------------3------------------3--------|
|-------0------0---0-------0------0---0--|
|-----2---2------2-------2---2------2----|
|----------------------------------------|
|-0-------------------0------------------|

|---------------------------------------|
|-----------3------------------3--------|
|-----0-------0---0-------0------0---0--|
|---2---2-------2-------4---4------4----|
|-3-------------------5-----------------|
|---------------------------------------|
                                            
|----------------------------------------|
|------------3------------------3--------|
|-------0------0---0-------0------0---0--|
|-----2---2------2-------2---2------2----|
|----------------------------------------|
|-0-------------------0------------------|

|---------------------------------------|
|-----------3------------------3--------|
|-----0-------0---0-------0------0---0--|
|---2---2-------2-------4---4------4----|
|-3-------------------5-----------------|
|---------------------------------------|
                                            
|----------------------------------------|
|------------3------------------3--------|
|-------0------0---0-------0------0---0--|
|-----2---2------2-------2---2------2----|
|----------------------------------------|
|-0-------------------0------------------|

|---------------------------------------|
|-----------3------------------3--------|
|-----0-------0---0-------0------0---0--|
|---2---2-------2-------4---4------4----|
|-3-------------------5-----------------|
|---------------------------------------|
                                            
|---------------------------------------|
|---------------------------------------|
|---------------------------------------|
|------2-2-2-2-2-2-2-2-2-2-2-2-2-2-2-2--|
|------2-2-2-2-2-2-2-2-2-2-2-2-2-2-2-2--|
|-/12/-0-0-0-0-0-0-0-0-0-0-0-0-0-0-0-0--|
       * * * * * * * * * 
         ^-Slowly release from Palm Mute)

Verse 2 (Guitar 2)

|------------------------------------|
|------------------------------------|
|-----------0---------------0--------|
|---------4---4p0---------4---4p0----|
|-3-3-3-3---------5-5-5-5------------|
|------------------------------------|
  * * * *         * * * *

|------------------------------------|
|------------------------------------|
|------------------------------------|
|-----------0---------------0--------|
|---------4---4p0---------4---4p0----|
|-0-0-0-0---------0-0-0-0------------|
  * * * *         * * * *

|------------------------------------|
|------------------------------------|
|-----------0---------------0--------|
|---------4---4p0---------4---4p0----|
|-3-3-3-3---------5-5-5-5------------|
|------------------------------------|
  * * * *         * * * *

|------------------------------------|
|------------------------------------|
|------------------------------------|
|-----------0---------------0--------|
|---------4---4p0---------4---4p0----|
|-0-0-0-0---------0-0-0-0------------|
  * * * *         * * * *

|------------------------------------|
|------------------------------------|
|-----------0---------------0--------|
|---------4---4p0---------4---4p0----|
|-3-3-3-3---------5-5-5-5------------|
|------------------------------------|
  * * * *         * * * *

|------------------------------------|
|------------------------------------|
|------------------------------------|
|-----------0---------------0--------|
|---------4---4p0---------4---4p0----|
|-0-0-0-0---------0-0-0-0------------|
  * * * *         * * * *

|------------------------------------|
|------------------------------------|
|-----------0---------------0--------|
|---------4---4p0---------4---4p0----|
|-3-3-3-3---------5-5-5-5------------|
|------------------------------------|
  * * * *         * * * *

|------------------------------------|
|------------------------------------|
|------------------------------------|
|-----------0---------------0--------|
|---------4---4p0---------4---4p0----|
|-0-0-0-0---------0-0-0-0------------|
  * * * *         * * * *

|------------------------------------|
|------------------------------------|
|-----------0---------------0--------|
|---------4---4p0---------4---4p0----|
|-3-3-3-3---------5-5-5-5------------|
|------------------------------------|
  * * * *         * * * *

|------------------------------------|
|------------------------------------|
|------------------------------------|
|-----------0---------------0--------|
|---------4---4p0---------4---4p0----|
|-0-0-0-0---------0-0-0-0------------|
  * * * *         * * * *

|------------------------------------|
|------------------------------------|
|-----------0---------------0--------|
|---------4---4p0---------4---4p0----|
|-3-3-3-3---------5-5-5-5------------|
|------------------------------------|
  * * * *         * * * *

|---------------------------------------|
|---------------------------------------|
|---------------------------------------|
|------2-2-2-2-2-2-2-2-2-2-2-2-2-2-2-2--|
|------2-2-2-2-2-2-2-2-2-2-2-2-2-2-2-2--|
|-/12/-0-0-0-0-0-0-0-0-0-0-0-0-0-0-0-0--|
       * * * * * * * * * 
         ^-Slowly release from Palm Mute)

Chorus (Guitar 1)

|--------------------------------|
|--------------------------------|
|-5----5--5--5-7--7--7--7-7-7-7--|
|-5----5--5--5-7--7--7--7-7-7-7--|
|-3----3--3--3/5--5--5--5-5-5-5--|
|--------------------------------|

|--------------------------------|
|--------------------------------|
|--------------------------------|
|-2----2--2--2-2--2--2--2-2-2-2--|
|-2----2--2--2-2--2--2--2-2-2-2--|
|-0----0--0--0-0--0--0--0-0-0-0--|

|--------------------------------|
|--------------------------------|
|-5----5--5--5/7--7--7--7-7-7-7--|
|-5----5--5--5/7--7--7--7-7-7-7--|
|-3----3--3--3/5--5--5--5-5-5-5--|
|--------------------------------|

|--------------------------------|
|--------------------------------|
|--------------------------------|
|-2----2--2--2-2--2--2--2-2-2-2--|
|-2----2--2--2-2--2--2--2-2-2-2--|
|-0----0--0--0-0--0--0--0-0-0-0--|

|--------------------------------|
|--------------------------------|
|-5----5--5--5/7--7--7--7-7-7-7--|
|-5----5--5--5/7--7--7--7-7-7-7--|
|-3----3--3--3/5--5--5--5-5-5-5--|
|--------------------------------|

|--------------------------------|
|--------------------------------|
|--------------------------------|
|-2----2--2--2-2--2--2--2-2-2-2--|
|-2----2--2--2-2--2--2--2-2-2-2--|
|-0----0--0--0-0--0--0--0-0-0-0--|

|--------------------------------|
|--------------------------------|
|-5----5--5--5/7--7--7--7-7-7-7--|
|-5----5--5--5/7--7--7--7-7-7-7--|
|-3----3--3--3/5--5--5--5-5-5-5--|
|--------------------------------|

|---------------------------------------|
|---------------------------------------|
|---------------------------------------|
|-/4-4-4-4-4-4-4-4-4-4-4-4-4-4-4-4-4-4--|
|-/4-4-4-4-4-4-4-4-4-4-4-4-4-4-4-4-4-4--|
|-/2-2-2-2-2-2-2-2-2-2-2-2-2-2-2-2-2-2--|
   * * * * * * * * * 
       
Chorus (Guitar 2)

|--------------------------------|
|--------------------------------|
|-5----5--5--5-7--7--7--7-7-7-7--|
|-5----5--5--5-7--7--7--7-7-7-7--|
|-3----3--3--3/5--5--5--5-5-5-5--|
|--------------------------------|

|--------------------------------|
|--------------------------------|
|--------------------------------|
|-2----2--2--2-2--2--2--2-2-2-2--|
|-2----2--2--2-2--2--2--2-2-2-2--|
|-0----0--0--0-0--0--0--0-0-0-0--|

|--------------------------------|
|--------------------------------|
|-5----5--5--5-7--7--7--7-7-7-7--|
|-5----5--5--5-7--7--7--7-7-7-7--|
|-3----3--3--3/5--5--5--5-5-5-5--|
|--------------------------------|

|--------------------------------|
|--------------------------------|
|--------------------------------|
|-2----2--2--2-2--2--2--2-2-2-2--|
|-2----2--2--2-2--2--2--2-2-2-2--|
|-0----0--0--0-0--0--0--0-0-0-0--|

|----------------------------------|
|----------------------------------|
|-5-5-5-5-5-5-5-5-7-7-7-7-7-7-7-7--|
|-x-x-x-x-x-x-x-x-x-x-x-x-x-x-x-x--|
|-3-3-3-3-3-3-3-3-5-5-5-5-5-5-5-5--|
|----------------------------------|

|-------------------------------------------|
|-------------------------------------------|
|-9-9-9-9-9-9-9-9-12-12-12-12-11-11-11-7-7--|
|-x-x-x-x-x-x-x-x--x--x--x--x-x--x--x--x-x--|
|-7-7-7-7-7-7-7-7-10-10-10-10-9--9--9--5-5--|
|-------------------------------------------|

|----------------------------------|
|----------------------------------|
|-5-5-5-5-5-5-5-5-7-7-7-7-7-7-7-7--|
|-x-x-x-x-x-x-x-x-x-x-x-x-x-x-x-x--|
|-3-3-3-3-3-3-3-3-5-5-5-5-5-5-5-5--|
|----------------------------------|

|-----------------------------|
|----------------------/5-7-8-|
                        
                    
Tap to rate this tab
# A B C D E F G H I J K L M N O P Q R S T U V W X Y Z