Song name
# A B C D E F G H I J K L M N O P Q R S T U V W X Y Z

Misc Unsigned Bands - Explosion Of The Insane - Say Goodbye tab

INTRO:
   --------------------------------------------|
   --------------------------------------------|
   -6-8------------------6-9-8-----------------|
   -6-8------------------6-9-8-----------------|
   -4-6------------------4-7-6-----------------|
   ------0-0-0-0-0-0-0-0-------0-0-0-0-0-0-0-0-|
PM:      . . . . . . . .       . . . . . .. .

   -------------------------------------------------|
   -------------------------------------------------|
   -6-8------------------6-9-8-------9--11b-9-------|
   -6-8------------------6-9-8--9-11----------11-9b-|
   -4-6------------------4-7-6----------------------|
   ------0-0-0-0-0-0-0-0----------------------------|
PM:      . . . . . . . .

   -------------------------------------------------|
   -------------------------------------------------|
   -------------------------------------------------|
   -11-11-11-14-11-12-11-9--9-9-9-9-9-9-9-9---------|
   -11-11-11-14-11-12-11-9--9-9-9-9-9-9-9-9---------|
   -11-11-11-14-11-12-11-9--9-9-9-9-9-9-9-9---------|

   -------------------------------------------------|
   -------------------------------------------------|
   ------------------------------9-11b-11b----------|
   -11-11-11-14-11-12-11-9--9-11--------------------|
   -11-11-11-14-11-12-11-9--------------------------|
   -11-11-11-14-11-12-11-9--------------------------|

   -------------------------------------------------|
   -------------------------------------------------|
   -------------------------------------------------|
   -11-11-11-14-11-12-11-9--9-9-9-9-9-9-9-9---------|
   -11-11-11-14-11-12-11-9--9-9-9-9-9-9-9-9---------|
   -11-11-11-14-11-12-11-9--9-9-9-9-9-9-9-9---------|

   -------------------------------------------------|
   -------------------------------------------------|
   ------------------------------9-11b-11b----------|
   -11-11-11-14-11-12-11-9--9-11--------------------|
   -11-11-11-14-11-12-11-9--------------------------|
   -11-11-11-14-11-12-11-9--------------------------|

CHORUS:
   -------------------------------------------------|
   -------------------------------------------------|
   -------------------------------------------------|
   -5-3--3-3-3-3-3-3---7-5--5-5-5-5-5-5-------------|
   -5-3--3-3-3-3-3-3---7-5--5-5-5-5-5-5-------------|
   -5-3--3-3-3-3-3-3---7-5--5-5-5-5-5-5-------------|
PM:      .   . .   .        .   . .   .

   --------------------------------------------|
   --------------------------------------------|
   --------------------------------------------|
   -6-3--3-3-3-3-3-3---7-5--5-7-5--6\-8--------|
   -6-3--3-3-3-3-3-3---7-5---------6\-8--------|
   -6-3--3-3-3-3-3-3---7-5---------6\-8--------|
PM:      .   . .   .

VERSE:
   --------------------------------------------|
   --------------------------------------------|
   --------------------------------------------|
   -7---------8---7---------10-8-7-------------|
   -7---------8---7---------10-8-7-------------|
   -7-7-7-7-7-8---7-7-7-7-7-10-8-7-------------|
PM:   . . . .       . . . .


CHORUS:
   -------------------------------------------------|
   -------------------------------------------------|
   -------------------------------------------------|
   -5-3--3-3-3-3-3-3---7-5--5-5-5-5-5-5-------------|
   -5-3--3-3-3-3-3-3---7-5--5-5-5-5-5-5-------------|
   -5-3--3-3-3-3-3-3---7-5--5-5-5-5-5-5-------------|
PM:      .   . .   .        .   . .   .

   --------------------------------------------|
   --------------------------------------------|
   --------------------------------------------|
   -6-3--3-3-3-3-3-3---7-5--5-7-5--6/-8--------|
   -6-3--3-3-3-3-3-3---7-5---------6/-8--------|
   -6-3--3-3-3-3-3-3---7-5---------6/-8--------|
PM:      .   . .   .

BRIDGE:
   --------------------------------------------|
   --------------------------------------------|
   --------------------------------------------|
   -9--9-7--7-5--5-3---------------------4-----|
   -9--9-7--7-5--5-3---------------------2-----|
   -9--9-7--7-5--5-3--\\\\\\\\\\\\\\\\\\\------|

   --------------------------------------------------|
   --------------------------------------------------|
   --------------------------------------------------|
   -4-4-4-4-4-4--------------4-4-4-4-4-4-2-0-2-0-4-2-|
   -2-2-2-2-2-2-4-0-6-0-4-2--2-2-2-2-2-2-------------|
   --------------------------------------------------|
PM:   . .   . .                . .   . .

   ---------------------------------------------------|
   ---------------------------------------------------|
   ---------------------------------------------------|
   -4-4-4-4-4-4--------------4-4-4-4-4-4-2-0-2-0-4-2/-|
   -2-2-2-2-2-2-4-0-6-0-4-2--2-2-2-2-2-2--------------|
   ---------------------------------------------------|
PM:   . .   . .                . .   . .


CHORUS:
   --------------------------------------------------|
   --------------------------------------------------|
   --------------------------------------------------|
   -\5-3--3-3-3-3-3-3---7-5--5-5-5-5-5-5-------------|
   -\5-3--3-3-3-3-3-3---7-5--5-5-5-5-5-5-------------|
   -\5-3--3-3-3-3-3-3---7-5--5-5-5-5-5-5-------------|
PM:      .   . .   .        .   . .   .

   --------------------------------------------|
   --------------------------------------------|
   --------------------------------------------|
   -6-3--3-3-3-3-3-3---7-5--5-7-5--6/-8--------|
   -6-3--3-3-3-3-3-3---7-5---------6/-8--------|
   -6-3--3-3-3-3-3-3---7-5---------6/-8--------|
PM:      .   . .   .
Tap to rate this tab
# A B C D E F G H I J K L M N O P Q R S T U V W X Y Z