Song name
# A B C D E F G H I J K L M N O P Q R S T U V W X Y Z

Misc Unsigned Bands - Kerosene Skys - Razorblade Kiss tab

----------------------------------------------------------------------------
		      RAZORBLADE KISS - Kerosene Skys
----------------------------------------------------------------------------
This song was hella hard to figure out. It took me two weeks straight to figure out. It's a good song

Tuning:C G C F A D

INTRO
|gt I---------------------------------------------------------------------|
|-------------------------------------------------------------------------|
|-------------------------------------------------------------------------|
|--------------------------------------------------------7-10-8-7-----x4--|
|-------------------------------------------------7-8-10----------8-------|
|-00--00--00--00--00--00--00--00--00--00--00--00--------------------------|
| ..  ..  ..  ..  ..  ..  ..  ..  ..  ..  ..  ..
|gt II--------------------------------------------------------------------|
|-------------------------------------------------------------------------|
|-------------------------------------------------------------------------|
|---------------------------------------------------------------------x2--|
|-------------------------------------------------------------------------|
|-00--00--00--00--00--00--00--00--00--00--00--00--000-000-000-000---------|
| ..  ..  ..  ..  ..  ..  ..  ..  ..  ..  ..  ..  ... ... ... ...
|gt IIcont.---------------------------------------------------------------|
|-------------------------------------------------------------------------|
|-------------------------------------------------------5-8-7-3-----------|
|-------------------------------------------------5-7-8------------x2-----|
|-------------------------------------------------------------------------|
|-00--00--00--00--00--00--00--00--00--00--00--00--------------------------|
  ..  ..  ..  ..  ..  ..  ..  ..  ..  ..  ..  ..

interlude
|gt I-------------------------------------|
|-----------------------------------------|
|-----------------------------------------|
|---------7-10-8-7-------------7-10-8-7---|
|--7-8-10----------8----7-8-10----------8-|
|-----------------------------------------|
|
|gt II----------------------------------|
|---------------------------------------|
|------------------------------5-8--7-3-|
|-----------------------5-7-8-----------|
|---------------------------------------|
|---------------------------------------|

VERSE
|gt I--------------------------------------------------|
|------------------------------------------------------|
|------------------------------------------------------|
|------------------------------------------------------|
|--8-10--8-12--10-810------10--12--13--12--10--12--1213|
|88-8--88-8--88--8-----1010--10--10--10--10--10--10----|
|.. .  .. .  ..  .     . .   .   .   .   .   .   .
|gt II----------------------------------------|
|---------------------------------------------|
|---------------------------------------------|
|---------------------------------------------|
|--5-7--5-8--7-57--------7-8-10-8-7-8-810-----|
|00-0-00-0-00-0--------00-0-0--0-0-0-0--------|
 .. . .. . .. .        .. . .  . . . .
|gt I--------------------------------------------------|
|------------------------------------------------------|
|------------------------------------------------------|
|------------------------------------------------------|
|----12--13----12--15----13--1213----7-8-10-7-8-10-78--|
|1212--12--1212--12--1212--12------77-7-7--7-7-7--7----|
|. .   .   . .   .   . .   .       .. . .  . . .  .
|gt II----------------------------------------|
|---------------------------------------------|
|---------------------------------------------|
|---------------------------------------------|
|--8-10--8-12--10-810----3-5-7-3-5-7-35-------|
|00-0--00-0--00--0-----00-0-0-0-0-0-0---------|
 .. .  .. .  ..  .     .. . . . . . .
pre-chorus 1
|gt I----------------------------|
|--------------------------------|
|-9-----10-----14-----12-----15~-|
|--------------------------------|
|-7-----8------12-----10-----13~-|
|--------------------------------|

CHORUS
|gt I------------------------------------------------------|-----|
|----------------------------------------------------------|-----|
|----------------------------------------------------------|--7--|
|--12------------------------------------------------------|-----|
|--12-played through out chorus ( about 64 times or so )---|--5--|
|--12------------------------------------------------------|-----|
|
|gt II-----------------------------------------------------|-----|
|----------------------------------------------------------|-----|
|----------------------------------------------------------|-----|
|00000~----000000~----0~0~-0000~--00-3----2----00000~---+--|--0--|
|00000~----000000~----0~0~-0000~--00-5----4----00000~------|--0--|
|00000~----000000~----0~0~-0000~--00-----------00000~------|--0--|

pre-chorus2
|gt I----------------------------|
|--------------------------------|
|-9--7--10-9--12--10-14--12--15~-|
|--------------------------------|
|-7--5--8--7--10--8--12--10--13~-|
|--------------------------------|

BREAKDOWN
|gt I----------------------------------|
|--12----------------------------------|
|--15---also repeated about 64 times---|
|--------------------------------------|
|--------------------------------------|
|--------------------------------------|
|
|gt II---------------------------------|
|--------------------------------------|
|--------------------------------------|
|--same as gt II part of chorus--------|
|--------------------------------------|
|--------------------------------------|


SONG ORDER:
>intro
>verse
>pre-chorus1
>chorus
>verse
>pre-chorus2
>chorus
>breakdown
>chorus


| ~  vibrato
| +  pinch harmonic
| .  Mute note
============================================================================
Tap to rate this tab
# A B C D E F G H I J K L M N O P Q R S T U V W X Y Z