Song name
# A B C D E F G H I J K L M N O P Q R S T U V W X Y Z

Misc Unsigned Bands - Only Seven Left - Leave It All tab

-----------------------------------------------------------------------------
		        Only Seven Left - Leave It All
-----------------------------------------------------------------------------
Tabbed by: Jochem
Email: jochem@stereoyear.com

Tuning: Normal


Intro/Chorus guitar 1:
e|-----------------------------------------------------------|
B|-----------------------------------------------------------|
G|---6-6-6-6-----8-8-8-8-----10-10-10-10-----11-11-11-11-----|
D|---x-x-x-x-----x-x-x-x-----x--x--x--x------x--x--x--x------|
A|---4-4-4-4-----6-6-6-6-----8--8--8--8------9--9--9--9------|
E|-----------------------------------------------------------|

e|-----------------------------------------------------------|
B|-----------------------------------------------------------|
G|---6-6-6-6-----8-8-8-8-----10-10-10-10-----13-13-13-13-----|
D|---x-x-x-x-----x-x-x-x-----x--x--x--x------x--x--x--x------|
A|---4-4-4-4-----6-6-6-6-----8--8--8--8------11-11-11-11-----|
E|-----------------------------------------------------------|

e|-----------------------------------------------------------|
B|-----------------------------------------------------------|
G|---6-6-6-6-----8-8-8-8-----10-10-10-10-----11-11-11-11-----|
D|---x-x-x-x-----x-x-x-x-----x--x--x--x------x--x--x--x------|
A|---4-4-4-4-----6-6-6-6-----8--8--8--8------9--9--9--9------|
E|-----------------------------------------------------------|

e|-----------------------------------------------------------|
B|-----------------------------------------------------------|
G|---6-6-6-6-----10-10-10-10----8-8-8-8------13-13-13-13-----|
D|---x-x-x-x-----x--x--x--x-----x-x-x-x------x--x--x--x------|
A|---4-4-4-4-----8--8--8--8-----6-6-6-6------11-11-11-11-----|
E|-----------------------------------------------------------|

Intro/Chorus guitar 2:
e|-----------------------------------------------------------| 
B|---9--9-99-9--7--7-77-7--9--9-99-9--7--7-77-7--------------|
G|-----------------------------------------------------------|
D|-----------------------------------------------------------|
A|-----------------------------------------------------------|
E|-----------------------------------------------------------|

e|------------------------------------11-11-8-8--------------|
B|---9--9-99-9--7--7-77-7--9--9-99-9-------------------------|
G|-----------------------------------------------------------|
D|-----------------------------------------------------------|
A|-----------------------------------------------------------|
E|-----------------------------------------------------------|

e|---9--9-99-9--8--8-88-8--9--9-99-9--8--8-88-8--------------| 
B|-----------------------------------------------------------|
G|-----------------------------------------------------------|
D|-----------------------------------------------------------|
A|-----------------------------------------------------------|
E|-----------------------------------------------------------|

e|---9--9-99-9--8--8-88-8--9--9-99-9--8--8--4----------------| 
B|-----------------------------------------------------------|
G|-----------------------------------------------------------|
D|-----------------------------------------------------------|
A|-----------------------------------------------------------|
E|-----------------------------------------------------------|

Pre-chorus guitar 1:
e|---11~-----------------------------------------------------| 
B|-----------------------------------------------------------|
G|-----------------------------------------------------------|
D|-----------------------------------------------------------|
A|-----------------------------------------------------------|
E|-----------------------------------------------------------|

e|---11-11-11-11-11-11-11-11-11-11-11-11-11-11-xxxx----------| 
B|---------------------------------------------xxxx----------|
G|---------------------------------------------xxxx----------|
D|---------------------------------------------xxxx----------|
A|---------------------------------------------xxxx----------|
E|---------------------------------------------xxxx----------|

Pre-chorus guitar 12:
e|---8h9p8---------------------------------------------------| 
B|---------9~------------------------------------------------|
G|-----------------------------------------------------------|
D|-----------------------------------------------------------|
A|-----------------------------------------------------------|
E|-----------------------------------------------------------|

Bridge guitar 1:
e|-----------------------------------------------------------|
B|-----------------------------------------------------------|
G|---10-10-10-10-10--6-6-6-6-6---3-3-3-3-3---13-13-13-13-13--|
D|---x--x--x--x--x---x-x-x-x-x---x-x-x-x-x---x--x--x--x--x---|
A|---8--8--8--8--8---4-4-4-4-4---1-1-1-1-1---11-11-11-11-11--|
E|-----------------------------------------------------------|
     M  M  M  M      M M M M     M M M M     M  M  M  M  

Bridge guitar 2:
e|---8h9p8----8h9p8------8h9p8h9-11-9-8----8-----------------|
B|------------------9-------------------11---9---------------|
G|-----------------------------------------------------------|
D|-----------------------------------------------------------|
A|-----------------------------------------------------------|
E|-----------------------------------------------------------|


| h  hammer-on
| p  pull-off
| ~  vibrato
| +  harmonic
| M  mute note
Tap to rate this tab
# A B C D E F G H I J K L M N O P Q R S T U V W X Y Z