Song name
# A B C D E F G H I J K L M N O P Q R S T U V W X Y Z

Misc Unsigned Bands - Planet Sass - The Real Messiah tab

-------------------------------|
The Real Messiah- Planet Sass--|
Tabbed by: Zach Sedefian
Email: 32141234123123

Tuning:12312312312312312312312312312312312312312

e|----------------------------------------------------------------------------|
B|----------------------------------------------------------------------------|
G|----------------------------------------------------------------------------|
D|--5--5--5--5--5-------------------------------------------------------------|
A|--3--3--3--3--3--5--7--7--7--7--7-------------------------------------------|
E|-----------------3--5--5--5--5--5-------------------------------------------|


e|----------------------------------------------------------------------------|
B|----------------------------------------------------------------------------|
G|----------------------------------------------------------------------------|
D|--5--5--5--5--5--7----------------------------------------------------------|
A|--3--3--3--3--3--5--7--7--7--7--7-------------------------------------------|
E|--------------------5--5--5--5--5-------------------------------------------|
Tap to rate this tab
 
# A B C D E F G H I J K L M N O P Q R S T U V W X Y Z