Guitaretab - guitar tabs
Song name
# A B C D E F G H I J K L M N O P Q R S T U V W X Y Z

Misc Unsigned Bands - Killing Berlin - Lips Of Red tab

Killing Berlin:Lips Of Red
This is their first song and i believe its amazing its rily fun to play.enjoy :)

Tuning: Drop D
INTRO Part 1:X4
e|--------------------------------------------------------------------------|
B|--------------------------------------------------------------------------|
G|--------------------------------------------------------------------------|
D|--------------------------------------------------------------------------|
A|--------------------------------------------------------------------------|
D|-000075-000053-00005353-00007575------------------------------------------| 
Pm+++++++++++++++++++++++++++++++
Intro Part 2:
e|---------------------------------------------------------------------------|
B|---------------------------------------------------------------------------|
G|-----------TREMELO---------------------------------------------------------|
D|---------------------------------------------------------------------------|
A|------------------------------------12-12-12-12-11-11-11-11-14-14-14-14-11-|
D|-12-12-12-12-11-11-11-11-14-14-14-14---------------------------------------|


e|---------------------------------------------------------------------------|
B|--------------(tremelo)----------------------------------------------------|
G|---------------------------------------------------------------------------|
D|---------------------------------------------------------------------------|
A|-11-11-11-(X3)-----------------------------------12-11-14-11--(X1)---------|
D|--------------12-12-12-12-11-11-11-11-14-14-14-14--------------------------|


VERSE 1:
e|-----|---------------------------------------------------------------------|
B|-----|---------------------------------------------------------------------|
G|-(X1)|-------------------------------------------------------(X4)----------|
D|543--|---------------------------------------3/5---------------------------|
A|543--|--------0-0000-320-0000---4-0-0000-32-3/5-0000-----5*---------------|
D|543--|--------0-0000---30-0000-32--0-0000----3/5-0000-3-2------------------|
             Pm ++++++    ++++++     ++++++        ++++
Chorus:X3
e|--------------------------------------------------------------------------|
B|--------------------------------------------------------------------------|
G|--------------------------------------------------------------------------|
D|-0000-10-10-10-10-88888888-0000-5555-33333333-----------------------------|
A|-0000-10-10-10-10-88888888-0000-5555-33333333-----------------------------|
D|-0000-10-10-10-10-88888888-0000-5555-33333333-----------------------------|
Pm ++++                      ++++

Verse 2:
Guitar 1: X4
e|---------------------------------------------------------------------------|
B|---------------------------------------------------------------------------|
G|---------------------------------------------------------------------------|
D|---------------------------------------------------------------------------|
A|-----------------00001230000321--------------------------------------------|
D|-000012300000321-----------------------------------------------------------|
Pm ++++++++++++++++++++++++++++++
Guitar 2:X4
e|---------------------------------------------------------------------------|
B|-----------777789-10-------------------------------------------------------|
G|-777789-10-----------------------------------------------------------------|
D|---------------------------------------------------------------------------|
A|---------------------------------------------------------------------------|
D|---------------------------------------------------------------------------|
Solo:
e|-------------------------------------------9-11-12/15-575757575/353535353-|
B|---------------------79-10-8/4-12-14-15/17--------------------------------|
G|-------------79-10-6------------------------------------------------------|
D|------5786/4--------------------------------------------------------------|
A|-5784---------------------------------------------------------------------|
D|--------------------------------------------------------------------------|

e|-----3050--7050--------12-12-13-9-9-10-15-15-16-17-17-18------------------|
B|-3050----50----70----------------------------------------12-13-12-9-10-9--|
G|------------------7^------------------------------------------------------|
D|--------------------9^----------------------------------------------------|
A|--------------------------------------------------------------------------|
D|--------------------------------------------------------------------------|

e|--------------------------------------------------------------------------|
B|-15-16-15-17-18-17--------------------------------------------------------|
G|-------------------7-9-7-5-7-5-3-5-3p0-<(dive)----------------------------|
D|--------------------------------------------------------------------------|
A|--------------------------------------------------------------------------|
D|--------------------------------------------------------------------------|
[ Tab from: http://www.guitaretab.com/m/misc-unsigned-bands/83662.html ]
Solo Rhythm:
e|--------------------------------------------------------------------------|
B|--------------------------------------------------------------------------|
G|--------------------------------------------------------------------------|
D|--------------------------------------------------------------------------|
A|--------------------------------------------------------------------------|
D|--0000-10-8-0000-5-3-0000-10-8-0000-5-3-----------------------------------|
Pm+++++++++++++++++++++++++++++++++++++++
Verse 3:
Guitar 1 Clean:
e|--------------------------------------------------------------------------|
B|--------------------------------------------------------------------------|
G|--55553333222233332222-(X2)-----------------------55553333222233332222*---|
D|--------------------------------------------------------------------------|
A|-----------------------------77775555444455554444-------------------------|
D|--------------------------------------------------------------------------|
Solo 2:
Guitar 2: Play 6 times gradually faster
e|--15-15-15-15-13-13-13-13-13-12-12-12-1213-13-13-13-12-12-12-12--------------|
B|----------------------------------------------------------------b12b15--------|
G|----------------------------------------------------------------------b12-----|
D|------------------------------------------------------------------------------|
A|--------------------------------------------------------------------------D|--|
Guitar 1: X4
e|-------------12------------------------------12---------------------------|
B|-----------13--13--------------------------13--13-------------------------|
G|---------14------14----------------------14------14-----------------------|
D|-13-12-13----------13-12-13------13-12-13----------13-12-13---------------|
A|---------------------------14--14-----------------------------------------|
D|-----------------------------13-------------------------------------------|

     Harmony with both sweeps

Guitar 2: X4
e|------7-------------7-----------------------------------------------------|
B|-----8-8-----------8-8----------------------------------------------------|
G|----9---9---------9---9---------------------------------------------------|
D|-878-----878---878-----878------------------------------------------------|
A|------------9-9-----------------------------------------------------------|
D|-------------8------------------------------------------------------------|

Guitar 2:
e|--------------------------------------------------------------------------|
B|--------------------------------------------------------------------------|
G|---79-10-79-10-79-10-79-10-79-10-19-10t15---------------------------------|
D|------------------------------------------356356356356356356t17-----------|
A|--------------------------------------------------------------------------|
D|--------------------------------------------------------------------------|


BreakDown:
Guitar 1:
e|--------------------------------------------------------------------------|
B|--------------------------------------------------------------------------|
G|--------------------------------------------------------------------------|
D|---------------------------------------------------------------------0----|
A|-------------------5*------------------------------------------------0----|
D|0<(Dive)-000-0-000---0-000-0-000-0-000-0-000-0-12/-000-0-000-0-000-0-000-|
        Pm +++++++++   +++++++++++++++++++++++++     ++++++++++++++++++  ++

e|--------------------------------------------------------------------------|
B|--------------------------------------------------------------------------|
G|--------------------------------------------------------------------------|
D|--------------------------------------------------------------0-----------|
A|-------------------3*-----------------------------------------0-----------|
D|-000-0-000-0-000-0----000-0-000-0-000-0-\12-000-0-000-0-000-0-0-0-0-0-0---|
Pm +++++++++++++++++    +++++++++++++++++     +++++++++++++++++   +++++++

Outro
e|--------------------------------------------------------------------------|
B|--------------------------------------------------------------------------|
G|--------------------------------------------------------------------------|
D|-000055553----------------------------------------------------------------|
A|-000055553----------------------------------------------------------------|
D|-000055553----------------------------------------------------------------|
 Pm++++

Fill 1:
Guitar 2
e|--765-------------------------------567-----------------------------------|
B|-----765-------------------------567--------------------------------------|
G|--------765-------------------567-----------------------------------------|
D|-----------765-------------567--------------------------------------------|
A|--------------765-------567-----------------------------------------------|
D|-----------------765-567--------------------------------------------------|

Fill 2:
e|---------------------------------------------------------------------------|
B|---------------------------------------------------------------------------|
G|---------------------------------------------------------------------------|
D|-----7----5-----3/5-------------------------7-----5-----3-5----------------|
A|-----5----3-----1/3----7-----5-----3/5------5-----3-----1/3----------------|
D|-000---000--000----000-5-000-3-000-1/3--000---000---000--------------------|

Order:
Intro Part 1
Intro Part 2
Verse 1
Chorus
Fill 1
Verse 2
Fill 2
Solo 1
Verse 3
Solo 2
Fill 2
Chorus
Fill 1
DIVE
BreakDown
Verse 1
Chorus
Fill 1
Outro
| /  slide up
| \  slide down
| h  hammer-on
| p  pull-off
| ~  vibrato
| *  harmonic
| x  Mute note
| +  Palm Mute

Lyrics:
Those lips of red kept, me, here, like nothing else they delivered love and transfered 
that, killed ,me, inside it seems as if they ,were, never, there, but, I, still, see, 
you, made, love, this, vision, that,became blurred and obscuredddd
she found the key to my heart, unlocked the madness turning it to sadness, broke on the 
,unseen from the outside, going on with life has unveiled itself to me
i fought you fire versus fire (fire), stiched my heart (heart) and healed my  wounds 
i learned to go on with what i had telling myself my love (love) for you was gone was a lie 
but, i stuck, with, it, i, hate, you, for, what, you, did, you, crawl, inside, me, drain, me, of,  life
(chorus)
(solo)
the curves of your hips and beauty of those red lips i loosen the noose of your love 
the deathgrip wakens my mind im no longer blind (making me what i am todayyy)
(chorus)

underlined parts are screaming
Related for Killing Berlin - Lips Of Red tab