Song name
# A B C D E F G H I J K L M N O P Q R S T U V W X Y Z

Misc Unsigned Bands - Punish And Torment - Pulse Of The Dead tab

artist:Punish And Torment
song:Pulse of the Dead
album:Hell Awaits

guitarists:zeropulse,faint

legend              ...=palm mute
*=harmonic
s=slide to string
^=bend string up
f=fingertap
bd=bend string down

 intro riff(also the verse/main riff)-both guitars
1-----------------------------
2-----------------------------
3-----------------------------
4-----------------------------
5-----10-5-6--------10-5-6----
6-0-0--------8--0-0--------10-
 ...           ...

1-----------------------------
2-----------------------------
3-----------------------------
4-----------------------------
5-----12-4-7--------12-4-7----
6-0-0--------6--0-0--------8--
 ...           ...

1-----------------------------
2-----------------------------
3-----------------------------
4-----------------------------
5-----10-5-6--------10-5-6----
6-0-0--------8--0-0--------10- repeat riff 2x
 ...           ...

 solo-zeropulse
1---------------------------12-10-9--16-16-13-14-12-11-15-10-
2---------10-4-12---------14-------12------------------------
3------13^------10-6--0-12-----------------------------------
4-12bd-----------12-9*---------------------------------------
5------------------------------------------------------------
6------------------------------------------------------------

1-10-12-11-11-7-13-8-9-12-----------10-
2------------------------------9--13---
3-------------------------14-12--12----
4--------------------------------------
5--------------------------------------
6--------------------------------------

rythem guitar(during solo)-faint
1------------------------------------------------
2------------------------------------------------
3-8-8-6-6-6-10-10-10-12-12-12-10-10-14-14-14-6-6-
4-8-8-6-6-6-10-10-10-12-12-12-10-10-14-14-14-6-6-
5-8-8-6-6-6-10-10-10-12-12-12-10-10-14-14-14-6-6-
6-0-0-0--------------------------------00-00-00--

1-----------
2-----------
3-----------
4-12---8----
5-10---6-14-
6-10-----12-

chorus riff(lead)-faint
1----------5-7----15^----------
2-12^----9-----17--------------
3---13s10----------------------
4---------------------10-10-12-
5---------------------10-10-12-
6---------------------10-10-12-

 chorus-zeropulse
1------------------------------
2------------------------------
3------------------------------
4--8-8--6-8-6-8-6-8------------
5--6-6--6-8-6-8-6-8------------
6---------------------10-10-12-

solo-zeropulse
1------11----------18-14---------13---------10--------16-----
2-----12-15-------21---11-------13-12---12---12--11-14-------
3----14---12-----15-----13-----12---8-----14---13-------12bd-
4---11-----12---21-------15---13------1----------------------
5--12-------13-19---------11-12------------------------------
6-10---------10------------23--------------------------------

order of song
intro riff
solo#1
verse1
rythem(during solos)
verse2
chorus
solo#2
verse3
chorus


genre:melodic death metal,metalcore














Tap to rate this tab
# A B C D E F G H I J K L M N O P Q R S T U V W X Y Z