Song name
# A B C D E F G H I J K L M N O P Q R S T U V W X Y Z

Misc Unsigned Bands - Konspiracy - Diary tab

Konspiracy
Diary
Diary (2007)

Tuning: C G C F A D

http://artists.ultimate-guitar.com/konspiracy/

homepage: http://myspace.com/konspiracy1

http://purevolume.com/konspiracy

Verse (Guitar 1)

|--------------------------------------|
|--------------------------------------|
|--------------------------------------|
|----0---------------------------------|
|----0------------------------5h8p5p0--|
|-0--0--0-000-000-000-000-000----------|
  *     * *** *** *** *** ***  

|------------------------------------|
|------------------------------------|
|------------------------------------|
|--8---------------------------------|
|--8------------------------5h8p5p0--|
|--8--8-888-888-888-888-888----------|
      * *** *** *** *** ***  

|---------------------------------|
|---------------------------------|
|---------------------------------|
|--5------------------------------|
|--5-----------------8-----7---5--|
|--5--5-555-555-555----5-5---5----|
      * *** *** ***    * *   *   

|-----------------------------------------|
|-----------------------------------------|
|-----------------------------------------|
|--7--------------------------------------|
|--7--------------------------------------|
|--7--7-777-777-777-h88/77h55p00-3P.H.~~--|
      * *** *** ***  ** ** ** **   


|--------------------------------------|
|--------------------------------------|
|--------------------------------------|
|----0---------------------------------|
|----0------------------------5h8p5p0--|
|-0--0--0-000-000-000-000-000----------|
  *     * *** *** *** *** ***  

|------------------------------------|
|------------------------------------|
|------------------------------------|
|--8---------------------------------|
|--8------------------------5h8p5p0--|
|--8--8-888-888-888-888-888----------|
      * *** *** *** *** ***  

|---------------------------------|
|---------------------------------|
|---------------------------------|
|--5------------------------------|
|--5-----------------8-----7---5--|
|--5--5-555-555-555----5-5---5----|
      * *** *** ***    * *   *   

|-----------------------------------------|
|-----------------------------------------|
|-----------------------------------------|
|--7--------------------------------------|
|--7--------------------------------------|
|--7--7-777-777-777-h88/77h55p00-3P.H.~~--|
      * *** *** ***  ** ** ** **   


|--------------------------------------|
|--------------------------------------|
|--------------------------------------|
|----0---------------------------------|
|----0------------------------5h8p5p0--|
|-0--0--0-000-000-000-000-000----------|
  *     * *** *** *** *** ***  

|------------------------------------|
|------------------------------------|
|------------------------------------|
|--8---------------------------------|
|--8------------------------5h8p5p0--|
|--8--8-888-888-888-888-888----------|
      * *** *** *** *** ***  

|---------------------------------|
|---------------------------------|
|---------------------------------|
|--5------------------------------|
|--5-----------------8-----7---5--|
|--5--5-555-555-555----5-5---5----|
      * *** *** ***    * *   *   

|-----------------------------------------|
|-----------------------------------------|
|-----------------------------------------|
|--7--------------------------------------|
|--7--------------------------------------|
|--7--7-777-777-777-h88/77h55p00-3P.H.~~--|
      * *** *** ***  ** ** ** **   

|--------------------------------------|
|--------------------------------------|
|--------------------------------------|
|----0---------------------------------|
|----0------------------------5h8p5p0--|
|-0--0--0-000-000-000-000-000----------|
  *     * *** *** *** *** ***  

|------------------------------------|
|------------------------------------|
|------------------------------------|
|--8---------------------------------|
|--8------------------------5h8p5p0--|
|--8--8-888-888-888-888-888----------|
      * *** *** *** *** ***  

|---------------------------------|
|---------------------------------|
|---------------------------------|
|--5------------------------------|
|--5-----------------8-----7---5--|
|--5--5-555-555-555----5-5---5----|
      * *** *** ***    * *   *   

|-----------------------------------------|
|-----------------------------------------|
|-----------------------------------------|
|--7--------------------------------------|
|--7--------------------------------------|
|--7--7-777-777-777-h88/77h55p00-3P.H.~~--|
      * *** *** ***  ** ** ** **   

Verse (Guitar 2) (Comes in on third measure)

|---------------------------------------|
|---------------------------------------|
|---------------------------------------|
|----0----------------------------------|
|----0------------------------8h12p8p0--|
|-0--0--0-000-000-000-000-000-----------|
  *     * *** *** *** *** ***  

|-------------------------------------|
|-------------------------------------|
|-------------------------------------|
|--8----------------------------------|
|--8------------------------8h12p8p0--|
|--8--8-888-888-888-888-888-----------|
      * *** *** *** *** ***  

|---------------------------------|
|---------------------------------|
|---------------------------------|
|--5-----------------7-----5------|
|--5---------------------------8--|
|--5--5-555-555-555----5-5---5----|
      * *** *** ***    * *   *   

|-----------------------------------------|
|-----------------------------------------|
|-----------------------------------------|
|--7--------------------------------------|
|--7--------------------------------------|
|--7--7-777-777-777-h88/77h55p00-3P.H.~~--|
      * *** *** ***  ** ** ** **   

|---------------------------------------|
|---------------------------------------|
|---------------------------------------|
|----0----------------------------------|
|----0------------------------8h12p8p0--|
|-0--0--0-000-000-000-000-000-----------|
  *     * *** *** *** *** ***  

|-------------------------------------|
|-------------------------------------|
|-------------------------------------|
|--8----------------------------------|
|--8------------------------8h12p8p0--|
|--8--8-888-888-888-888-888-----------|
      * *** *** *** *** ***  

|---------------------------------|
|---------------------------------|
|---------------------------------|
|--5-----------------7-----5------|
|--5---------------------------8--|
|--5--5-555-555-555----5-5---5----|
      * *** *** ***    * *   *   

|-----------------------------------------|
|-----------------------------------------|
|-----------------------------------------|
|--7--------------------------------------|
|--7--------------------------------------|
|--7--7-777-777-777-h88/77h55p00-3P.H.~~--|
      * *** *** ***  ** ** ** **   

Pre-Chorus (Guitar 1)

|-----------------------------------------------------------------|
|-----------------------------------------------------------------|
|-----------------------------------------------------------------|
|-0---------------------------------------------------------------|
|-0---------------------------------------------------------------|
|-0--0-000-000-0-000-h1p0-0-1P.H.~-0-000-000-0-000-h1p0-0-3P.H.~--|
     * *** *** * ***      *        * *** *** * ***      *

|-------------------------------------------------------------------|
|-------------------------------------------------------------------|
|-------------------------------------------------------------------|
|----------------------------------------7-7-7-7p0----------10p8p7--|
|-0-000-000-0-000-h1p0-0-1P.H.~-8--8-8-8------------7-7-7-7---------|
  * *** *** * ***      *           * * *              * * *

|-----------------------------------------------------------------|
|-----------------------------------------------------------------|
|-----------------------------------------------------------------|
|-0---------------------------------------------------------------|
|-0---------------------------------------------------------------|
|-0--0-000-000-0-000-h1p0-0-1P.H.~-0-000-000-0-000-h1p0-0-3P.H.~--|
     * *** *** * ***      *        * *** *** * ***      *

|-------------------------------------------------------------------|
|-------------------------------------------------------------------|
|-------------------------------------------------------------------|
|----------------------------------------7-7-7-7p0----------10p8p7--|
|-0-000-000-0-000-h1p0-0-1P.H.~-8--8-8-8------------7-7-7-7---------|
  * *** *** * ***      *           * * *              * * *

Pre-Chorus (Guitar 2)

|-----------------------------------------------------------------|
|-----------------------------------------------------------------|
|-----------------------------------------------------------------|
|-0---------------------------------------------------------------|
|-0---------------------------------------------------------------|
|-0--0-000-000-0-000-h1p0-0-1P.H.~-0-000-000-0-000-h1p0-0-3P.H.~--|
     * *** *** * ***      *        * *** *** * ***      *

|----------------------------------------------------------------|
|----------------------------------------------------------------|
|----------------------------------------5-5-5-5----------8p7p5--|
|----------------------------------------------------------------|
|-0-000-000-0-000-h1p0-0-1P.H.~-8--8-8-8----------7-7-7-7--------|
  * *** *** * ***      *           * * *            * * *

|-----------------------------------------------------------------|
|-----------------------------------------------------------------|
|-----------------------------------------------------------------|
|-0---------------------------------------------------------------|
|-0---------------------------------------------------------------|
|-0--0-000-000-0-000-h1p0-0-1P.H.~-0-000-000-0-000-h1p0-0-3P.H.~--|
     * *** *** * ***      *        * *** *** * ***      *

|----------------------------------------------------------------|
|----------------------------------------------------------------|
|----------------------------------------5-5-5-5----------8p7p5--|
|----------------------------------------------------------------|
|-0-000-000-0-000-h1p0-0-1P.H.~-8--8-8-8----------7-7-7-7--------|
  * *** *** * ***      *           * * *            * * *

Chorus (Guitar 2)
|-------------------------------------------------------------|
|-------------------------------------------------------------|
|-------------------------------------------------------------|
|------7---7p5--------5---5h7--------7---7p5----5p3----3p2p0--|
|-------------------------------------------------------------|
|-8--8---8-----0h5--5---5-----0-0--0---0-----00-----00--------|
     *   *     *    *   *     *    *   *     **     **

|-------------------------------------------------------------|
|-------------------------------------------------------------|
|-------------------------------------------------------------|
|------7---7p5--------5---5h7--------7---7p5----5p3----3p2p0--|
|-------------------------------------------------------------|
|-8--8---8-----0h5--5---5-----0-0--0---0-----00-----00--------|
     *   *     *    *   *     *    *   *     **     **

|-------------------------------------------------------------|
|-------------------------------------------------------------|
|-------------------------------------------------------------|
|------7---7p5--------5---5h7--------7---7p5----5p3----3p2p0--|
|-------------------------------------------------------------|
|-8--8---8-----0h5--5---5-----0-0--0---0-----00-----00--------|
     *   *     *    *   *     *    *   *     **     **

|--------------------------------|
|--------------------------------|
|--------------------------------|
|--------7---7p5--------5---5h7--|
|--------------------------------|
|--/8--8---8-----0h5--5---5------|
       *   *     *    *   *     

Chorus (Guitar 1)

|-------------------------------------------------------------|
|-------------------------------------------------------------|
|-------------------------------------------------------------|
|-------------------------------------------------------------|
|------8---8p7--------7---7h8--------8---8p7----7p5----5p3p0--|
|-8--8---8-----0h5--5---5-----0-0--0---0-----00-----00--------|
     *   *     *    *   *     *    *   *     **     **

|---------------------------------------------------------------|
|---------------------------------------------------------------|
|---------------------------------------------------------------|
|---------------------------------------------------------------|
|--------8---8p7--------7---7h8--------8---8p7----7p5----5p3p0--|
|--/8--8---8-----0h5--5---5-----0-0--0---0-----00-----00--------|
       *   *     *    *   *     *    *   *     **     **

|-------------------------------------------------------------|
|-------------------------------------------------------------|
|-------------------------------------------------------------|
|-------------------------------------------------------------|
|------8---8p7--------7---7h8--------8---8p7----7p5----5p3p0--|
|-8--8---8-----0h5--5---5-----0-0--0---0-----00-----00--------|
     *   *     *    *   *     *    *   *     **     **

|--------------------------------|
|--------------------------------|
|--------------------------------|
|--------------------------------|
|--------8---8p7--------7---7h8--|
|--/8--8---8-----0h5--5---5------|
       *   *     *    *   *     

Verse (Guitar 1)

|--------------------------------------|
|--------------------------------------|
|--------------------------------------|
|----0---------------------------------|
|----0------------------------5h8p5p0--|
|-0--0--0-000-000-000-000-000----------|
  *     * *** *** *** *** ***  

|------------------------------------|
|------------------------------------|
|------------------------------------|
|--8---------------------------------|
|--8------------------------5h8p5p0--|
|--8--8-888-888-888-888-888----------|
      * *** *** *** *** ***  

|---------------------------------|
|---------------------------------|
|---------------------------------|
|--5------------------------------|
|--5-----------------8-----7---5--|
|--5--5-555-555-555----5-5---5----|
      * *** *** ***    * *   *   

|-----------------------------------------|
|-----------------------------------------|
|-----------------------------------------|
|--7--------------------------------------|
|--7--------------------------------------|
|--7--7-777-777-777-h88/77h55p00-3P.H.~~--|
      * *** *** ***  ** ** ** **   


|--------------------------------------|
|--------------------------------------|
|--------------------------------------|
|----0---------------------------------|
|----0------------------------5h8p5p0--|
|-0--0--0-000-000-000-000-000----------|
  *     * *** *** *** *** ***  

|------------------------------------|
|------------------------------------|
|------------------------------------|
|--8---------------------------------|
|--8------------------------5h8p5p0--|
|--8--8-888-888-888-888-888----------|
      * *** *** *** *** ***  

|---------------------------------|
|---------------------------------|
|---------------------------------|
|--5------------------------------|
|--5-----------------8-----7---5--|
|--5--5-555-555-555----5-5---5----|
      * *** *** ***    * *   *   

|-----------------------------------------|
|-----------------------------------------|
|-----------------------------------------|
|--7--------------------------------------|
|--7--------------------------------------|
|--7--7-777-777-777-h88/77h55p00-3P.H.~~--|
      * *** *** ***  ** ** ** **   


|--------------------------------------|
|--------------------------------------|
|--------------------------------------|
|----0---------------------------------|
|----0------------------------5h8p5p0--|
|-0--0--0-000-000-000-000-000----------|
  *     * *** *** *** *** ***  

|------------------------------------|
|------------------------------------|
|------------------------------------|
|--8---------------------------------|
|--8------------------------5h8p5p0--|
|--8--8-888-888-888-888-888----------|
      * *** *** *** *** ***  

|---------------------------------|
|---------------------------------|
|---------------------------------|
|--5------------------------------|
|--5-----------------8-----7---5--|
|--5--5-555-555-555----5-5---5----|
      * *** *** ***    * *   *   

|-----------------------------------------|
|-----------------------------------------|
|-----------------------------------------|
|--7--------------------------------------|
|--7--------------------------------------|
|--7--7-777-777-777-h88/77h55p00-3P.H.~~--|
      * *** *** ***  ** ** ** **   

|--------------------------------------|
|--------------------------------------|
|--------------------------------------|
|----0---------------------------------|
|----0------------------------5h8p5p0--|
|-0--0--0-000-000-000-000-000----------|
  *     * *** *** *** *** ***  

|------------------------------------|
|------------------------------------|
|------------------------------------|
|--8---------------------------------|
|--8------------------------5h8p5p0--|
|--8--8-888-888-888-888-888----------|
      * *** *** *** *** ***  

|---------------------------------|
|---------------------------------|
|---------------------------------|
|--5------------------------------|
|--5-----------------8-----7---5--|
|--5--5-555-555-555----5-5---5----|
      * *** *** ***    * *   *   

|-----------------------------------------|
|-----------------------------------------|
|-----------------------------------------|
|--7--------------------------------------|
|--7--------------------------------------|
|--7--7-777-777-777-h88/77h55p00-3P.H.~~--|
      * *** *** ***  ** ** ** **   

Verse (Guitar 2) (Comes in on third measure)

|---------------------------------------|
|---------------------------------------|
|---------------------------------------|
|----0----------------------------------|
|----0------------------------8h12p8p0--|
|-0--0--0-000-000-000-000-000-----------|
  *     * *** *** *** *** ***  

|-------------------------------------|
|-------------------------------------|
|-------------------------------------|
|--8----------------------------------|
|--8------------------------8h12p8p0--|
|--8--8-888-888-888-888-888-----------|
      * *** *** *** *** ***  

|---------------------------------|
|---------------------------------|
|---------------------------------|
|--5-----------------7-----5------|
|--5---------------------------8--|
|--5--5-555-555-555----5-5---5----|
      * *** *** ***    * *   *   

|-----------------------------------------|
|-----------------------------------------|
|-----------------------------------------|
|--7--------------------------------------|
|--7--------------------------------------|
|--7--7-777-777-777-h88/77h55p00-3P.H.~~--|
      * *** *** ***  ** ** ** **   

|---------------------------------------|
|---------------------------------------|
|---------------------------------------|
|----0----------------------------------|
|----0------------------------8h12p8p0--|
|-0--0--0-000-000-000-000-000-----------|
  *     * *** *** *** *** ***  

|-------------------------------------|
|-------------------------------------|
|-------------------------------------|
|--8----------------------------------|
|--8------------------------8h12p8p0--|
|--8--8-888-888-888-888-888-----------|
      * *** *** *** *** ***  

|---------------------------------|
|---------------------------------|
|---------------------------------|
|--5-----------------7-----5------|
|--5---------------------------8--|
|--5--5-555-555-555----5-5---5----|
      * *** *** ***    * *   *   

|-----------------------------------------|
|-----------------------------------------|
|-----------------------------------------|
|--7--------------------------------------|
|--7--------------------------------------|
|--7--7-777-777-777-h88/77h55p00-3P.H.~~--|
      * *** *** ***  ** ** ** **   

Pre-Chorus (Guitar 1)

|-----------------------------------------------------------------|
|-----------------------------------------------------------------|
|-----------------------------------------------------------------|
|-0---------------------------------------------------------------|
|-0---------------------------------------------------------------|
|-0--0-000-000-0-000-h1p0-0-1P.H.~-0-000-000-0-000-h1p0-0-3P.H.~--|
     * *** *** * ***      *        * *** *** * ***      *

|-------------------------------------------------------------------|
|-------------------------------------------------------------------|
|-------------------------------------------------------------------|
|----------------------------------------7-7-7-7p0----------10p8p7--|
|-0-000-000-0-000-h1p0-0-1P.H.~-8--8-8-8------------7-7-7-7---------|
  * *** *** * ***      *           * * *              * * *

|-----------------------------------------------------------------|
|-----------------------------------------------------------------|
|-----------------------------------------------------------------|
|-0---------------------------------------------------------------|
|-0---------------------------------------------------------------|
|-0--0-000-000-0-000-h1p0-0-1P.H.~-0-000-000-0-000-h1p0-0-3P.H.~--|
     * *** *** * ***      *        * *** *** * ***      *

|-------------------------------------------------------------------|
|-------------------------------------------------------------------|
|-------------------------------------------------------------------|
|----------------------------------------7-7-7-7p0----------10p8p7--|
|-0-000-000-0-000-h1p0-0-1P.H.~-8--8-8-8------------7-7-7-7---------|
  * *** *** * ***      *           * * *              * * *

Pre-Chorus (Guitar 2)

|-----------------------------------------------------------------|
|-----------------------------------------------------------------|
|-----------------------------------------------------------------|
|-0---------------------------------------------------------------|
|-0---------------------------------------------------------------|
|-0--0-000-000-0-000-h1p0-0-1P.H.~-0-000-000-0-000-h1p0-0-3P.H.~--|
     * *** *** * ***      *        * *** *** * ***      *

|----------------------------------------------------------------|
|----------------------------------------------------------------|
|----------------------------------------5-5-5-5----------8p7p5--|
|----------------------------------------------------------------|
|-0-000-000-0-000-h1p0-0-1P.H.~-8--8-8-8----------7-7-7-7--------|
  * *** *** * ***      *           * * *            * * *

|-----------------------------------------------------------------|
|-----------------------------------------------------------------|
|-----------------------------------------------------------------|
|-0---------------------------------------------------------------|
|-0---------------------------------------------------------------|
|-0--0-000-000-0-000-h1p0-0-1P.H.~-0-000-000-0-000-h1p0-0-3P.H.~--|
     * *** *** * ***      *        * *** *** * ***      *

|----------------------------------------------------------------|
|----------------------------------------------------------------|
|----------------------------------------5-5-5-5----------8p7p5--|
|----------------------------------------------------------------|
|-0-000-000-0-000-h1p0-0-1P.H.~-8--8-8-8----------7-7-7-7--------|
  * *** *** * ***      *           * * *            * * *

Chorus (Guitar 2)
|-------------------------------------------------------------|
|-------------------------------------------------------------|
|-------------------------------------------------------------|
|------7---7p5--------5---5h7--------7---7p5----5p3----3p2p0--|
|-------------------------------------------------------------|
|-8--8---8-----0h5--5---5-----0-0--0---0-----00-----00--------|
     *   *     *    *   *     *    *   *     **     **

|-------------------------------------------------------------|
|-------------------------------------------------------------|
|-------------------------------------------------------------|
|------7---7p5--------5---5h7--------7---7p5----5p3----3p2p0--|
|-------------------------------------------------------------|
|-8--8---8-----0h5--5---5-----0-0--0---0-----00-----00--------|
     *   *     *    *   *     *    *   *     **     **

|-------------------------------------------------------------|
|-------------------------------------------------------------|
|-------------------------------------------------------------|
|------7---7p5--------5---5h7--------7---7p5----5p3----3p2p0--|
|-------------------------------------------------------------|
|-8--8---8-----0h5--5---5-----0-0--0---0-----00-----00--------|
     *   *     *    *   *     *    *   *     **     **

|--------------------------------|
|--------------------------------|
|--------------------------------|
|--------7---7p5--------5---5h7--|
|--------------------------------|
|--/8--8---8-----0h5--5---5------|
       *   *     *    *   *     

Chorus (Guitar 1)
|-------------------------------------------------------------|
|-------------------------------------------------------------|
|-------------------------------------------------------------|
|-------------------------------------------------------------|
|------8---8p7--------7---7h8--------8---8p7----7p5----5p3p0--|
|-8--8---8-----0h5--5---5-----0-0--0---0-----00-----00--------|
     *   *     *    *   *     *    *   *     **     **

|---------------------------------------------------------------|
|---------------------------------------------------------------|
|---------------------------------------------------------------|
|---------------------------------------------------------------|
|--------8---8p7--------7---7h8--------8---8p7----7p5----5p3p0--|
|--/8--8---8-----0h5--5---5-----0-0--0---0-----00-----00--------|
       *   *     *    *   *     *    *   *     **     **

|-------------------------------------------------------------|
|-------------------------------------------------------------|
|-------------------------------------------------------------|
|-------------------------------------------------------------|
|------8---8p7--------7---7h8--------8---8p7----7p5----5p3p0--|
|-8--8---8-----0h5--5---5-----0-0--0---0-----00-----00--------|
     *   *     *    *   *     *    *   *     **     **

|--------------------------------|
|--------------------------------|
|--------------------------------|
|--------------------------------|
|--------8---8p7--------7---7h8--|
|--/8--8---8-----0h5--5---5------|
       *   *     *    *   *     

Breakdown (Guitars 1 and 2)

|------------------------------------------------------------------|
|------------------------------------------------------------------|
|------------------------------------------------------------------|
|------------------------------------------------------------------|
|------------------------------------------------------------------|
|-000-000---000-0-000-000-000-000-000-000---000-0-000-000-000-000--|
  *** ***   *** * *** *** *** *** *** ***   *** * *** *** *** ***


|------------------------------------------------------------------|
|------------------------------------------------------------------|
|------------------------------------------------------------------|
|---------------------------------------------------------7n.h.----|
|------------------------------------------------------------------|
|-000-000---000-0-000-000-000-000-000-000---000-0-000-000----------|
  *** ***   *** * *** *** *** *** *** ***   *** * *** *** 


|------------------------------------------------------------------|
|------------------------------------------------------------------|
|------------------------------------------------------------------|
|-000-000---000-0-000-000-000-000-000-000---000-0-000-000-000-000--|
|-000-000---000-0-000-000-000-000-000-000---000-0-000-000-000-000--|
|-000-000---000-0-000-000-000-000-000-000---000-0-000-000-000-000--|
  *** ***   *** * *** *** *** *** *** ***   *** * *** *** *** ***


|------------------------------------------------------------------|
|------------------------------------------------------------------|
|------------------------------------------------------------------|
|-000-000---000-0-000-000-000-000-000-000---000-0-000-000-000-000--|
|-000-000---000-0-000-000-000-000-000-000---000-0-000-000-000-000--|
|-000-000---000-0-000-000-000-000-000-000---000-0-000-000-000-000--|
  *** ***   *** * *** *** *** *** *** ***   *** * *** *** *** ***

Pre-Breakdown (Guitar 1)

|--------------------------------------------------------------------|
|--------------------------------------------------------------------|
|--------------------------------------------------------------------|
|--------------------------------------------------------------------|
|------5---5h8----8p5----4h7-----5---5h8----5h8p5-5h8p8/4h7p4-4h7p7--|
|-0--0---0-----00-----00-----0-0---0-----00--------------------------|
     *   *     **     **     *     *     **

|--------------------------------------------------------------------|
|--------------------------------------------------------------------|
|--------------------------------------------------------------------|
|--------------------------------------------------------------------|
|------5---5h8----8p5----4h7-----5---5h8----5h8p5-5h8p8/6h9p6-6h9p6--|
|-0--0---0-----00-----00-----0-0---0-----00--------------------------|
     *   *     **     **     *     *     **

|--------------------------------------------------------------------|
|--------------------------------------------------------------------|
|--------------------------------------------------------------------|
|--------------------------------------------------------------------|
|------5---5h8----8p5----4h7-----5---5h8----5h8p5-5h8p8-4h7p4-4h7p7--|
|-0--0---0-----00-----00-----0-0---0-----00--------------------------|
     *   *     **     **     *     *     **

|--------------------------------------------------------------------|
|--------------------------------------------------------------------|
|--------------------------------------------------------------------|
|--------------------------------------------------------------------|
|------5---5h8----8p5----4h7-----5---5h8----5h8p5-5h8p8-6h9p6-6h9p6--|
|-0--0---0-----00-----00-----0-0---0-----00--------------------------|
     *   *     **     **     *     *     **

Pre-Bridge Breakdown (Guitar 2)(Comes in on third measure)

|--------------------------------------------------------------------|
|--------------------------------------------------------------------|
|--------------------------------------------------------------------|
|------3---3/7----5p3----2h3-----3---3/7----3h7p3-3h7p3/2h5p2-2h5p2--|
|--------------------------------------------------------------------|
|-0--0---0-----00-----00-----0-0---0-----00--------------------------|
     *   *     **     **     *     *     **

|--------------------------------------------------------------------|
|--------------------------------------------------------------------|
|--------------------------------------------------------------------|
|------3---3/7----5p3----2h3-----3---3/7----3h7p3-3h7p3/4h8p4-4h8p4--|
|--------------------------------------------------------------------|
|-0--0---0-----00-----00-----0-0---0-----00--------------------------|
     *   *     **     **     *     *     **

Pre-Bridge Breakdown pt. 2(Guitars 1 and 2)

|------------------------------------------------------------------|
|------------------------------------------------------------------|
|------------------------------------------------------------------|
|-000-000---000-0-000-000-000-000-000-000---000-0-000-000-000-000--|
|-000-000---000-0-000-000-000-000-000-000---000-0-000-000-000-000--|
|-000-000---000-0-000-000-000-000-000-000---000-0-000-000-000-000--|
  *** ***   *** * *** *** *** *** *** ***   *** * *** *** *** ***
            
                                             (b^1/2=bend up halfstep)
|-------------------------------------------------------------------|
|-------------------------------------------------------------------|
|------------------------------------------------------7p.h.+b^1/2--|
|-000-000---000-0-000-000-000-000-000-000---000-0-000---------------|
|-000-000---000-0-000-000-000-000-000-000---000-0-000---------------|
|-000-000---000-0-000-000-000-000-000-000---000-0-000---------------|
  *** ***   *** * *** *** *** *** *** ***   *** * *** 

|-------------------------------------------------------------------|
|-------------------------------------------------------------------|
|-------------------------------------------------------------------|
|-000-000---000-0-000-000-7-7-7-7--000-000---000-0-000-000-6-6-6-6--|
|-000-000---000-0-000-000-8-8-8-8--000-000---000-0-000-000-7-7-7-7--|
|-000-000---000-0-000-000----------000-000---000-0-000-000----------|
  *** ***   *** * *** ***          *** ***   *** * *** *** 

|-------------------------------------------------------------------|
|-------------------------------------------------------------------|
|-------------------------------------------------------------------|
|-000-000---000-0-000-000-7-7-7-7--000-000---000-0-6-6-6-6-6-6-6-6--|
|-000-000---000-0-000-000-8-8-8-8--000-000---000-0-7-7-7-7-7-7-7-7--|
|-000-000---000-0-000-000----------000-000---000-0------------------|
  *** ***   *** * *** ***          *** ***   *** * 

Bridge (Guitar 2)


|------------------------------------------------------------------|
|------------------------------------------------------------------|
|-----7---7h9-----9h10----10h12--------7---7h9----9h10p9h12p10/5~--|
|-0-0---0------00------00-------0-0--0---0-----00------------------|
|------------------------------------------------------------------|
|------------------------------------------------------------------|
    *   *      **     **       *    *    *     **

|--------------------------------|
|--------------------------------|
|-----7---7h9-----9h10----10h12--|
|-0-0---0------00------00--------|
|--------------------------------|
|--------------------------------|
    *   *      **     **     

Bridge (Guitar 1)

|--------------------------------------------------------|
|--------------------------------------------------------|
|--------------------------------------------------------|
|-0~~~---------------------------0~~~--------------------|
|-0~~~---------------------------0~~~--------------------|
|-0~~~---------------------------0~~~------///pickslide--|


|--------------------------------------------------|
|--------------------------------------------------|
|---7h10p7-7h10p7-7h10p7-7h10p7-6h9p6-6h9p6-6h9p6--|
|-0------------------------------------------------|
|--------------------------------------------------|
|--------------------------------------------------|

Solo (Guitar 2)
|---------------------------------------------|
|---------------------------------------------|
|-/9~------12-10-9-7p.h.-----/7--99-9/1010p9--|
|---------------------------------------------|
|---------------------------------------------|
|---------------------------------------------|
           *  * *

|---------------------------------------------|
|-10-10/11-11/13-13/11-11/10-10/11-11/13-13~--|
|---------------------------------------------|
|---------------------------------------------|
|---------------------------------------------|
|---------------------------------------------|

|-12b^1/2r--10h12p10--12b^1/2r-----15-13-12h13p12-10h12p10--|
|-----------------------------------------------------------|
|-----------------------------------------------------------|
|-----------------------------------------------------------|
|-----------------------------------------------------------|
|-----------------------------------------------------------|

|------------------------------------------------------------1010-------|
|-13h15p13-11h13p11-10h11p10/8h10--11p10h1111h1313p1111h1313------1313--|
|-----------------------------------------------------------------------|
|-----------------------------------------------------------------------|
|-----------------------------------------------------------------------|
|-----------------------------------------------------------------------|

|-1010h1212p10h12h13p12---/15-13-12h13p12/10h12-13p12-13-15p13-15h17p15p13--|
|---------------------------------------------------------------------------|
|---------------------------------------------------------------------------|
|---------------------------------------------------------------------------|
|---------------------------------------------------------------------------|
|---------------------------------------------------------------------------|

|-17-15-13h15p13-12h13p12--------------------|
|-------------------------15h17p15-14b^1/2r--|
|--------------------------------------------|
|--------------------------------------------|
|--------------------------------------------|
|--------------------------------------------|

Solo Rhythm (Guitar 1)

|--------------------------------------|
|--------------------------------------|
|--------------------------------------|
|----0---------------------------------|
|----0------------------------5h8p5p0--|
|-0--0--0-000-000-000-000-000----------|
  *     * *** *** *** *** ***  

|------------------------------------|
|------------------------------------|
|------------------------------------|
|--8---------------------------------|
|--8------------------------5h8p5p0--|
|--8--8-888-888-888-888-888----------|
      * *** *** *** *** ***  

|---------------------------------|
|---------------------------------|
|---------------------------------|
|--5------------------------------|
|--5-----------------8-----7---5--|
|--5--5-555-555-555----5-5---5----|
      * *** *** ***    * *   *   

|-----------------------------------------|
|-----------------------------------------|
|-----------------------------------------|
|--7--------------------------------------|
|--7--------------------------------------|
|--7--7-777-777-777-h88/77h55p00-3P.H.~~--|
      * *** *** ***  ** ** ** **   

Chorus (Guitar 2)
|-------------------------------------------------------------|
|-------------------------------------------------------------|
|-------------------------------------------------------------|
|------7---7p5--------5---5h7--------7---7p5----5p3----3p2p0--|
|-------------------------------------------------------------|
|-8--8---8-----0h5--5---5-----0-0--0---0-----00-----00--------|
     *   *     *    *   *     *    *   *     **     **

|-------------------------------------------------------------|
|-------------------------------------------------------------|
|-------------------------------------------------------------|
|------7---7p5--------5---5h7--------7---7p5----5p3----3p2p0--|
|-------------------------------------------------------------|
|-8--8---8-----0h5--5---5-----0-0--0---0-----00-----00--------|
     *   *     *    *   *     *    *   *     **     **

|-------------------------------------------------------------|
|-------------------------------------------------------------|
|-------------------------------------------------------------|
|------7---7p5--------5---5h7--------7---7p5----5p3----3p2p0--|
|-------------------------------------------------------------|
|-8--8---8-----0h5--5---5-----0-0--0---0-----00-----00--------|
     *   *     *    *   *     *    *   *     **     **

|-------------------------------------------------------------|
|-------------------------------------------------------------|
|-------------------------------------------------------------|
|------7---7p5--------5---5h7--------7---7p5----5p3----3p2p0--|
|-------------------------------------------------------------|
|-8--8---8-----0h5--5---5-----0-0--0---0-----00-----00--------|
     *   *     *    *   *     *    *   *     **     **

 
|----------------|
|----------------|
|----------------|
|-8~~~-----5~~~--|
|-8~~~-----5~~~--|
|-8~~~-----5~~~--|

Chorus (Guitar 1)

|-------------------------------------------------------------|
|-------------------------------------------------------------|
|-------------------------------------------------------------|
|-------------------------------------------------------------|
|------8---8p7--------7---7h8--------8---8p7----7p5----5p3p0--|
|-8--8---8-----0h5--5---5-----0-0--0---0-----00-----00--------|
     *   *     *    *   *     *    *   *     **     **

|-------------------------------------------------------------|
|-------------------------------------------------------------|
|-------------------------------------------------------------|
|-------------------------------------------------------------|
|------8---8p7--------7---7h8--------8---8p7----7p5----5p3p0--|
|-8--8---8-----0h5--5---5-----0-0--0---0-----00-----00--------|
     *   *     *    *   *     *    *   *     **     **

|-------------------------------------------------------------|
|-------------------------------------------------------------|
|-------------------------------------------------------------|
|-------------------------------------------------------------|
|------8---8p7--------7---7h8--------8---8p7----7p5----5p3p0--|
|-8--8---8-----0h5--5---5-----0-0--0---0-----00-----00--------|
     *   *     *    *   *     *    *   *     **     **

|-------------------------------------------------------------|
|-------------------------------------------------------------|
|-------------------------------------------------------------|
|-------------------------------------------------------------|
|------8---8p7--------7---7h8--------8---8p7----7p5----5p3p0--|
|-8--8---8-----0h5--5---5-----0-0--0---0-----00-----00--------|
     *   *     *    *   *     *    *   *     **     **

|----------------|
|----------------|
|----------------|
|-8~~~-----5~~~--|
|-8~~~-----5~~~--|
|-8~~~-----5~~~--|

Outro (Guitar 1)

|------------------------------------------|
|------------------------------------------|
|------------------------------------------|
|-000-000---000-0-000-000------------------|
|-000-000---000-0-000-000---------4h7p4p0--|
|-000-000---000-0-000-000-5h8p5p0----------|
  *** ***   *** * *** *** 

|------------------------------------------|
|------------------------------------------|
|------------------------------------------|
|-000-000---000-0-000-000------------------|
|-000-000---000-0-000-000---------4h7p4p0--|
|-000-000---000-0-000-000-5h8p5p0----------|
  *** ***   *** * *** *** 

|------------------------------------------|
|------------------------------------------|
|------------------------------------------|
|-000-000---000-0-000-000------------------|
|-000-000---000-0-000-000---------4h7p4p0--|
|-000-000---000-0-000-000-5h8p5p0----------|
  *** ***   *** * *** *** 

|----------------------------------------------------|
|----------------------------------------------------|
|----------------------------------------------------|
|-000-000---000-0-0----------------------------------|
|-000-000---000-0-0---------4h7p4p0---------4h7p4p0--|
|-000-000---000-0-0-5h8p5p0---------5h8p5p0----------|
  *** ***   *** * * 

|------------------------------------------|
|------------------------------------------|
|------------------------------------------|
|-000-000---000-0-000-000------------------|
|-000-000---000-0-000-000---------4h7p4p0--|
|-000-000---000-0-000-000-5h8p5p0----------|
  *** ***   *** * *** *** 

|------------------------------------------|
|------------------------------------------|
|------------------------------------------|
|-000-000---000-0-000-000------------------|
|-000-000---000-0-000-000---------4h7p4p0--|
|-000-000---000-0-000-000-5h8p5p0----------|
  *** ***   *** * *** *** 

|------------------------------------------|
|------------------------------------------|
|------------------------------------------|
|-000-000---000-0-000-000------------------|
|-000-000---000-0-000-000---------4h7p4p0--|
|-000-000---000-0-000-000-5h8p5p0----------|
  *** ***   *** * *** *** 

|----------------------------------------------------|
|----------------------------------------------------|
|----------------------------------------------------|
|-000-000---000-0-0----------------------------------|
|-000-000---000-0-0---------4h7p4p0---------4h7p4p0--|
|-000-000---000-0-0-5h8p5p0---------5h8p5p0----------|
  *** ***   *** * *

Outro (Guitar 2)(Comes in on Fifth Measure)

|--------------------------------------------|
|--------------------------------------------|
|--------------------------------------------|
|-000-000---000-0-000-000--------------------|
|-000-000---000-0-000-000----------7h10p7p0--|
|-000-000---000-0-000-000-8h11p8p0-----------|
  *** ***   *** * *** *** 

|--------------------------------------------|
|--------------------------------------------|
|--------------------------------------------|
|-000-000---000-0-000-000--------------------|
|-000-000---000-0-000-000----------7h10p7p0--|
|-000-000---000-0-000-000-8h11p8p0-----------|
  *** ***   *** * *** *** 
|--------------------------------------------|
|--------------------------------------------|
|--------------------------------------------|
|-000-000---000-0-000-000--------------------|
|-000-000---000-0-000-000----------7h10p7p0--|
|-000-000---000-0-000-000-8h11p8p0-----------| 
  *** ***   *** * *** *** 
|--------------------------------------------------------|
|--------------------------------------------------------|
|--------------------------------------------------------|
|-000-000---000-0-0--------------------------------------|
|-000-000---000-0-0----------7h10p7p0----------7h10p7p0--|
|-000-000---000-0-0-8h11p8p0----------8h11p8p0-----------|
  *** ***   *** * *

|------------------|
|------------------|
|------------------|
|-(0)~~~-----------|
|-(0)~~~-----------|
|-(0)~~~-----------|

end
Tap to rate this tab
# A B C D E F G H I J K L M N O P Q R S T U V W X Y Z