Song name
# A B C D E F G H I J K L M N O P Q R S T U V W X Y Z

Misc Unsigned Bands - Only Seven Left - Sad Exhibitions tab

-----------------------------------------------------------------------------
		      Only Seven Left - Sad Exhibitions
-----------------------------------------------------------------------------
Tabbed by: Jochem
Email: jochem@stereoyear.com

Tuning: Normal


Intro guitar 1:
e|--3333----3333----3333----3333-----------------------------------|
B|--3333----3333----3333----3333-----------------------------------|
G|--0000----2222----0000----0000-----------------------------------|
D|--0000----0000----2222----2222-----------------------------------|
A|--2222----0000----2222----3333-----------------------------------|
E|--3333----2222----0000-------------------------------------------|

Intro guitar 2:
e|----------0-----------0-----------0-----------0------------------| 
B|------3-----------3-----------3-----------3----------------------|
G|----0---0-------0---0-------0---0-------0---0--------------------|
D|--5-----------4-----------2-----------0--------------------------|
A|-----------------------------------------------------------------|
E|-----------------------------------------------------------------|

e|----------0---------------0---------------0---------------0------| 
B|------3-----3---3-----3-----3---3-----3-----3---3-----3-----3---3|
G|----0---0-----0-----0---0-----0-----0---0-----0-----0---0-----0--|
D|--5---------------5---------------4---------------4--------------|
A|-----------------------------------------------------------------|
E|-----------------------------------------------------------------|

e|----------0---------------0---------------0---------------0------| 
B|------3-----3---3-----3-----3---3-----3-----3---3-----3----------|
G|----0---0-----0-----0---0-----0-----0---0-----0-----0---0--------|
D|--2---------------2---------------0---------------0--------------|
A|-----------------------------------------------------------------|
E|-----------------------------------------------------------------|

e|----------0-----------0------------------------------------------| 
B|------3-----------3----------------------------------------------|
G|----0---0-------0---0--------------------------------------------|
D|--5-----------2--------------------------------------------------|
A|-----------------------------------------------------------------|
E|-----------------------------------------------------------------|

Verse guitar 1:
e|--3---3---5---5---3---3---2---2h3--------------------------------| 
B|----3---3---3---3---3---3---3------------------------------------|
G|-----------------------------------------------------------------|
D|-----------------------------------------------------------------|
A|-----------------------------------------------------------------|
E|-----------------------------------------------------------------|

Verse guitar 2:
e|--3333----3333----3333----3333-----------------------------------|
B|--3333----3333----3333----3333-----------------------------------|
G|--0000----2222----0000----0000-----------------------------------|
D|--0000----0000----2222----2222-----------------------------------|
A|--2222----0000----2222----3333-----------------------------------|
E|--3333----2222----0000-------------------------------------------|

Pre-chorus guitar 2:
e|-----------------------------------------------------------------| 
B|------3-------3--------------------------------------------------|
G|----0---0---0---0------------------------------------------------|
D|-----------------------------------------------------------------|
A|--3-------2------------------------------------------------------|
E|-----------------------------------------------------------------|

Chorus guitar 1:
e|--3333----3333----3333----3333-----------------------------------|
B|--3333----3333----3333----3333-----------------------------------|
G|--0000----2222----0000----0000-----------------------------------|
D|--0000----0000----2222----2222-----------------------------------|
A|--2222----0000----2222----3333-----------------------------------|
E|--3333----2222----0000-------------------------------------------|

Chorus guitar 2:
e|----------0---------------0---------------0---------------0------| 
B|------3-----3---3-----3-----3---3-----3-----3---3-----3-----3---3|
G|----0---0-----0-----0---0-----0-----0---0-----0-----0---0-----0--|
D|--5---------------5---------------4---------------4--------------|
A|-----------------------------------------------------------------|
E|-----------------------------------------------------------------|

e|----------0---------------0---------------0---------------0------| 
B|------3-----3---3-----3-----3---3-----3-----3---3-----3-----3---3|
G|----0---0-----0-----0---0-----0-----0---0-----0-----0---0-----0--|
D|--2---------------2---------------0---------------0--------------|
A|-----------------------------------------------------------------|
E|-----------------------------------------------------------------|

e|----------0---------------0---------------0---------------0------| 
B|------3-----3---3-----3-----3---3-----3-----3---3-----3-----3---3|
G|----0---0-----0-----0---0-----0-----0---0-----0-----0---0-----0--|
D|--5---------------5---------------4---------------4--------------|
A|-----------------------------------------------------------------|
E|-----------------------------------------------------------------|

e|----------0---------------0---------------0---------------0------| 
B|------3-----3---3-----3-----3---3-----3-----3---3-----3----------|
G|----0---0-----0-----0---0-----0-----0---0-----0-----0---0--------|
D|--2---------------2---------------0---------------0--------------|
A|-----------------------------------------------------------------|
E|-----------------------------------------------------------------|

After-chorus guitar 2:
e|----------0-----------0-----------0-----------0------------------| 
B|------3-----------3-----------3-----------3----------------------|
G|----0---0-------0---0-------0---0-------0---0--------------------|
D|--5-----------4-----------2--------------------------------------|
A|--------------------------------------3--------------------------|
E|-----------------------------------------------------------------|

Bridge both guitars:
e|--0000--/--0000----3333----3333----0000--/--0000-----------------| 
B|--3333--/--1111----3333----3333----1111--/--3333-----------------|
G|--0000--/--0000----0000----2222----0000--/--0000-----------------|
D|--4444--/--2222----0000----0000----2222--/--4444-----------------|
A|--5555--/--3333----2222----0000----3333--/--5555-----------------|
E|--5555--/--3333----3333----2222----3333--/--5555-----------------|

End on:
e|--3--------------------------------------------------------------|
B|--3--------------------------------------------------------------|
G|--0--------------------------------------------------------------|
D|--0--------------------------------------------------------------|
A|--2--------------------------------------------------------------|
E|--3--------------------------------------------------------------|


| / slide
| h  hammer-on
Tap to rate this tab
 
# A B C D E F G H I J K L M N O P Q R S T U V W X Y Z