Guitaretab - guitar tabs
Song name
# A B C D E F G H I J K L M N O P Q R S T U V W X Y Z

Misc Unsigned Bands - Shot Memory - Smash Tv tab

-----------------------------------------------------------------------
			     Smash TV- Shot Memory
-----------------------------------------------------------------------
Tabbed by: Patrick
Email:nf

Tuning: normal

e|---------------------------------------------------------------------|
B|---------------------------------------------------------------------|
G|---------------------------------------------------------------------|
D|---------------7-7-7-7-7-7---5-5-------------------------------------|
A|-3-------------5-5-5-5-5-5---3-3-5------X9--------------------------|
E|-1-------------------------------3-----------------------------------|
     Let Ring
e|---------------------------------------------------------------------|
B|---------------------------------------------------------------------|
G|---------------------------------------------------------------------|
D|---------------------------------------------------------------------|
A|-7-7-7-7-7-7-7-7---9-------------------------------------------------|
E|-5-5-5-5-5-5-5-5---7-------------------------------------------------|
[ Tab from: http://www.guitaretab.com/m/misc-unsigned-bands/83706.html ]
e|---------------------------------------------------------------------|
B|---------------------------------------------------------------------|
G|---------------------------------------------------------------------|
D|-9-9-9-9-9-9--7-7----------------------------------------------------|
A|-7-7-7-7-7-7--5-5-7------X3------------------------------------------|
E|------------------5--------------------------------------------------|

e|---------------------------------------------------------------------|
B|---------------------------------------------------------------------|
G|---------------------------------------------------------------------|
D|---------------------------------------------------------------------|
A|-9-9-9-9-9-9-9--7-7--2----X3-------5X9---7--------------------------|
E|-7-7-7-7-7-7-7--5-5--0-------------3------5--------------------------|

Repeat starting with third line. Then
e|---------------------------------------------------------------------|
B|---------------------------------------------------------------------|
G|---------------------------------------------------------------------|
D|-------------------------------------------7-7-7-7-7-7---------------|
A|-5X7--7-X7--5X7--7X7---5--/-7X6--------5-5-5-5-5-5-7-7-5---------|
E|-3-----5-----3-----5------3-/-5------------------------5-5-3---------|

END!!!
Related for Shot Memory - Smash Tv tab