Song name
# A B C D E F G H I J K L M N O P Q R S T U V W X Y Z

Misc Unsigned Bands - Punish And Torment - To Death Of Tyrants tab

artist:Punish and Torment
song:To Death of Tyrants
album:Hell Awaits

legend:
*=harmonic
B=bend string down
^=bend string up
s=slide to string
t=fingertap

intro solo(double solo)-zeropulse
1-------11bs14--------10-5-17-12---|
2--13-12------9--13-11-------------|
3--------------8^---------------10-|
4----------------------------------|
5----------------------------------|
6----------------------------------|

intro solo-faint
1-10-12-12-11-8-14t14t14t14t14t14t14-|
2------------------------------------|
3------------------------------------|
4------------------------------------|
5------------------------------------|
6------------------------------------|

intro solo-zeropulse
1----12------------|
2-10----8----------|.let ring while faint continues to tap away
3--8---------------|
4------------------|
5------------------|
6------------------|

1-12t12t12t12t12t12t14t14t14t12t12t13t13t12t12t11t11t11t14t14t-
2--------------------------------------------------------------|
3--------------------------------------------------------------|
4--------------------------------------------------------------|
5--------------------------------------------------------------|
6--------------------------------------------------------------|
   repeat tappimg part twice

 verse#1 riff-both guitars
1------------------------------------|
2------------------------------------|
3------------------------------------|
4---------12----------------12-------|
5--------10--6-8-0---------10--6-8-0-|
6-0-0-0-0-----------0-0-0-0----------|
  ......             .......


1------------------------------------|
2------------------------------------|
3------------------------------------|
4---------12----------------12-------|
5--------10--6-8-0---------10--6-8-0-|
6-0-0-0-0-----------0-0-0-0----------| faint repeats 4x while zeropulse 2x
  ......            .....
  verse riff-zeropulse
1-------------------|
2-10-12-15----------|
3---------12--15-12-|
4-------------------|
5-------------------|
6-------------------|

1--------
2-8~h13b-
3--------|
4--------|
5--------|
6--------|

pre chorus riff-faint
1------12-----9*s12^-------|
2---15---11---------16-10*-|
3-10-------14t-------------|
4--------------------------|
5--------------------------|
6--------------------------|

pre chorus-zeropulse
1----------------------------------------|
2----------------------------------------|
3-12-12-12-12-14-14-12-12-12-12-16-14----|
4-10-10-10-10-12-12-10-10-10-10-14-14----|
5-10-10-10-10-12-12-10-10-10-10-14-14-0~-|
6----------------------------------------|

chorus riff-both guitars
1---------------------------------------------|
2---------------------------------------------|
3---------------------------------------------|
4---------------------------------------------|
5----------------12-10-------------------10-8-|
6-0-0-0-0-0-0-0----------0-0-0-0-0-0-0--------| repeat 2x
  ..........             ..........

solo-faint(rythem is rythem part in pre chorus)
1-12b---------------|
2----14-12-9-11s14*-|
3-------------------|
4-------------------|
5-------------------|    later in th solo they change lead parts
6-------------------|

1-13t13t13t13t13t13t-
2--------------------|
3--------------------|
4--------------------|
5--------------------|
6--------------------|

1----------------13----|
2-----------16-14--10^-|
3-------12*------------|
4-10bs13^-12-----------|
5----------------------|
6----------------------|

solo-zerpulse
1---------11-14-9-------|
2----13-12--------8*-9^-|
3-----------------------|
4-----------------------|
5--15-------------------|
6-10--------------------|

1-16-15-14-13-12-16-15-14-13-12-16-15-14-13-12------10-5-6--------|
2---------------------------------------------10-5-6-------10-5-6-|
3-----------------------------------------------------------------|
4-----------------------------------------------------------------|
5-----------------------------------------------------------------|
6-----------------------------------------------------------------|

solo-faint
1-12t12t12t12t12t12t12t12t12t12t12t12t12t12t12t12-
2-------------------------------------------------|
3-------------------------------------------------|
4-------------------------------------------------|
5-------------------------------------------------|
6-------------------------------------------------|

solo-both guitars
1-14t14t14t14t14t12t12t12t1210t10t10t12t12t12t12t-
2--------------------------------------------------|
3--------------------------------------------------|
4--------------------------------------------------|
5--------------------------------------------------|
6--------------------------------------------------|

1-12t12t12t12t12t12t12t12t12t12t15-18b------|
2-------------------------------------12^7*-|
3-------------------------------------------|
4-------------------------------------------|
5-------------------------------------------|
6-------------------------------------------|

solo-zeropulse
1-10-10-5-5-8-8-5-4*-|
2--------------------|
3--------------------|
4--------------------|
5--------------------|
6--------------------|   good song, best underground band

genre:technical death metal,melodic death metal,hardcore
Tap to rate this tab
# A B C D E F G H I J K L M N O P Q R S T U V W X Y Z