Song name
# A B C D E F G H I J K L M N O P Q R S T U V W X Y Z

Misc Unsigned Bands - The Knife Trade - Resurrection tab

drop c i think, thats how i played it

|-------------------------------------------|
|-------------------------------------------|
|------9-7-9--------7-5-7--5-4-5------------|
|-0-0----------0-0--------------------------|
|-0-0----------0-0--------------------------|

|-------------------------------------------|
|-------------------------------------------|
|------7-5-7--------5-4-5--5-4-5------------|
|-0-0----------0-0--------------------------|
|-0-0----------0-0--------------------------|

thats all i know
Tap to rate this tab
# A B C D E F G H I J K L M N O P Q R S T U V W X Y Z