Song name
# A B C D E F G H I J K L M N O P Q R S T U V W X Y Z

Misc Unsigned Bands - Good In Short - Dead Paradise tab

INTRO: (2x)

-1-----1-------0------0-------1------1-------1s3-------3------------------|
---3-----3-------3------3-------2------2---------3-------3----------------|
-----2-----2-------0------0-------3------3---------4-------4--------------|
-0-------------2--------------3--------------3s5--------------------------|
--------------------------------------------------------------------------|
--------------------------------------------------------------------------|

Vers 1:(2x) 4/4

C/G/Am/Em/F/G/C/C

Lick:  (2x)

--0-----------------------------------|--0--------------------------------|
--1-----------------------------------|--5--------------------------------|
--3-----------------------------------|--7--------------------------------|
--2-----------------------------------|--6--------------------------------|
--3-----------------------------------|--7--------------------------------|
--------------------------------------|-----------------------------------|

and then H7/Em/Em

Vers 2:

C/G/Am/Em/F/G/C/C


Lick 2: (several Strumming)  (2x)  4/4

--0-----------------------------------|--0--------------------------------|
--0-----------------------------------|--0--------------------------------|
--0-----------------------------------|--0--------------------------------|
--5-----------------------------------|--7--------------------------------|
--5-----------------------------------|--7--------------------------------|
--3-----------------------------------|--5--------------------------------|


and then Em/C/Em/C/Em


That's it. Hope you like it. It's by me.(Good In Short is an Invention
of mine. The tabs are also all by me)
Tap to rate this tab
# A B C D E F G H I J K L M N O P Q R S T U V W X Y Z