Song name
# A B C D E F G H I J K L M N O P Q R S T U V W X Y Z

Misc Unsigned Bands - Without Dante - A Pirates Life For Who tab

-----------------------------------------------------------------------------
                 A Pirates Life For Who? - Without Dante
-----------------------------------------------------------------------------
Tabbed by:Nathan Pitner

Tuning:Drop D
Guitar 1
e|--------------------------------------------------------------------------|
B|--------------------------------------------------------------------------|
G|--------------------------------------------------------------------------|
D|--------------------------------------------------------------------------|
A|---5-5-8-8-13-13-12-12-10-10-12-12-8-8-10-8-7-----------------------------|
D|--------------------------------------------------------------------------|


e|--------------------------------------------------------------------------|
B|--------------------------------------------------------------------------|
G|--------------------------------------------------------------------------|
D|--------------------------------------------------------------------------|
A|---5-5-8-8-13-13-12-12-10-12-10-8-10-8-7-8-7-5----------------------------|
D|--------------------------------------------------------------------------|

Guitar 1 and 2
e|--------------------------------------------------------------------------|
B|--------------------------------------------------------------------------|
G|--------------------------------------------------------------------------|
D|--------------------------------------------------------------------------|
A|---0-0-3-3-8-8-7-7-5-5-7-7-3-3-5-3-2--------------------------------------|
D|---0-0-3-3-8-8-7-7-5-5-7-7-3-3-5-3-2--------------------------------------|
                                 x x x
Guitar 1 and 2
e|--------------------------------------------------------------------------|
B|--------------------------------------------------------------------------|
G|--------------------------------------------------------------------------|
D|--------------------------------------------------------------------------|
A|---0-0-3-3-8-8-7-7-5-7-5-3-5-3-2-3-2-0------------------------------------|
D|---0-0-3-3-8-8-7-7-5-7-5-3-5-3-2-3-2-0------------------------------------|
                     x x x x x x x x x x
Guitar 1
e|--------------------------------------------------------------------------|
B|--------------------------------------------------------------------------|
G|--------------------------------------------------------------------------|
D|--------------------------------------------------------------------------|
A|---0-0-3-3-8-8-7-7-5-5-7-7-3-3-5-3-2--------------------------------------|
D|---0-0-3-3-8-8-7-7-5-5-7-7-3-3-5-3-2--------------------------------------|
                                 x x x
Guitar 2
e|--------------------------------------------------------------------------|
B|--------------------------------------------------------------------------|
G|--------------------------------------------------------------------------|
D|--------------------------------------------------------------------------|
A|---------8-8-8-------8-7-8-------7-7-7-------7-5-7------------------------|
D|---0-0-0-------0-0-0-------0-0-0-------0-0-0------------------------------|
     x x x       x x x       x x x       x x x 
Guitar 1
e|--------------------------------------------------------------------------|
B|--------------------------------------------------------------------------|
G|--------------------------------------------------------------------------|
D|--------------------------------------------------------------------------|
A|---0-0-3-3-8-8-7-7-5-7-5-3-5-3-2-3-2-0------------------------------------|
D|---0-0-3-3-8-8-7-7-5-7-5-3-5-3-2-3-2-0------------------------------------|
                     x x x x x x x x x x









Guitar 2
e|--------------------------------------------------------------------------|
B|--------------------------------------------------------------------------|
G|--------------------------------------------------------------------------|
D|---------5-5-5-------5---5-----------5-------5----------------------------|
A|-----------------------8---------5-7-----------8-7------------------------|
D|---0-0-0-------0-0-0-------0-0-0-------0-0-0------------------------------|
     x x x       x x x       x x x       x x x 

Guitar 1 and 2
e|--------------------------------------------------------------------------|
B|--------------------------------------------------------------------------|
G|--------------------------------------------------------------------------|
D|--------------------------------------------------------------------------|
A|---0-0-3-3-8-8-7-7-5-5-7-7-3-3-5-3-2--------------------------------------|
D|---0-0-3-3-8-8-7-7-5-5-7-7-3-3-5-3-2--------------------------------------|
                                 x x x
Guitar 1 and 2
e|--------------------------------------------------------------------------|
B|--------------------------------------------------------------------------|
G|--------------------------------------------------------------------------|
D|--------------------------------------------------------------------------|
A|---0-0-3-3-8-8-7-7-5-7-5-3-5-3-2-3-2-0------------------------------------|
D|---0-0-3-3-8-8-7-7-5-7-5-3-5-3-2-3-2-0------------------------------------|
                     x x x x x x x x x x

e|--------------------------------------------------------------------------|
B|--------------------------------------------------------------------------|
G|--------------------------------------------------------------------------|
D|--------------------------------------------------------------------------|
A|--------------------------------------------------------------------------|
D|--------------------------------------------------------------------------|

| /  slide up
| \  slide down
| h  hammer-on
| p  pull-off
| ~  vibrato
| +  harmonic
| x  Mute note
=============================================================================
Tap to rate this tab
 
# A B C D E F G H I J K L M N O P Q R S T U V W X Y Z