Song name
# A B C D E F G H I J K L M N O P Q R S T U V W X Y Z

Misc Unsigned Bands - Its Pouring On Our Heads - Suck My Lollipop tab

This Is the exact one they play i listend to the song and tuned it out perfectly


e|-5-5--------5-5-----7-7---7-7--4-4-4-4-|
B|-5-5--------5-5-----7-7---7-7--4-4-4-4-|
G|-5-5--------5-5-----7-7---7-7--4-4-4-4-|   *2
D|-5-5--------5-5-----7-7---7-7--4-4-4-4-|
A|-5-5--------5-5-----7-7---7-7--4-4-4-4-|
E|-3-3--------5-5-----5-5---7-7--4-4-4-4-|

e|--4-4-4-4-4----5-5-5-5-5----6-6-6-6-6----5-5-5-5-5-|
B|--4-4-4-4-4----5-5-5-5-5----6-6-6-6-6----5-5-5-5-5-|
G|--4-4-4-4-4----5-5-5-5-5----6-6-6-6-6----5-5-5-5-5-|
D|--4-4-4-4-4----5-5-5-5-5----6-6-6-6-6----5-5-5-5-5-|
A|--4-4-4-4-4----5-5-5-5-5----6-6-6-6-6----5-5-5-5-5-|
E|--4-4-4-4-4----5-5-5-5-5----6-6-6-6-6----5-5-5-5-5-|
*5

e|-5-5--------5-5-----7-7---7---4-4-4-4-|
B|-5-5--------5-5-----7-7---7---4-4-4-4-|
G|-5-5--------5-5-----7-7---7---4-4-4-4-|
D|-5-5--------5-5-----7-7---7---4-4-4-4-|
A|-5-5--------5-5-----7-7---7---4-4-4-4-| *2
E|-3-3--------5-5-----5-5---7---4-4-4-4-|

e|--4-4-4-4-4----5-5-5-5-5----6-6-6-6-6----5-5-5-5-5-|
B|--4-4-4-4-4----5-5-5-5-5----6-6-6-6-6----5-5-5-5-5-|
G|--4-4-4-4-4----5-5-5-5-5----6-6-6-6-6----5-5-5-5-5-|
D|--4-4-4-4-4----5-5-5-5-5----6-6-6-6-6----5-5-5-5-5-|
A|--4-4-4-4-4----5-5-5-5-5----6-6-6-6-6----5-5-5-5-5-|
E|--4-4-4-4-4----5-5-5-5-5----6-6-6-6-6----5-5-5-5-5-|
*3

e|--9-9-9-9-9-9----6---5-----------------------------|
B|--9-9-9-9-9-9----6---5-----------------------------|
G|--9-9-9-9-9-9----6---5-----------------------------| *2
D|--9-9-9-9-9-9----6---5-----------------------------|
A|--9-9-9-9-9-9----6---5-----------------------------|
E|--7-7-7-7-7-7----4---3-----------------------------|


e|-5-5--------5-5-----7-7---7-7--4-4-4-4-|
B|-5-5--------5-5-----7-7---7-7--4-4-4-4-|
G|-5-5--------5-5-----7-7---7-7--4-4-4-4-|   *2
D|-5-5--------5-5-----7-7---7-7--4-4-4-4-|
A|-5-5--------5-5-----7-7---7-7--4-4-4-4-|
E|-3-3--------5-5-----5-5---7-7--4-4-4-4-|

e|-0------------------------------------------------------------------------|
B|-0------------------------------------------------------------------------|
G|-0------------------------------------------------------------------------|
D|-0------------------------------------------------------------------------|
A|-0------------------------------------------------------------------------|
E|-0------------------------------------------------------------------------|
Tap to rate this tab
# A B C D E F G H I J K L M N O P Q R S T U V W X Y Z