Song name
# A B C D E F G H I J K L M N O P Q R S T U V W X Y Z

Misc Unsigned Bands - Stanleys Whores - Knackor tab

its the bands first origional written and composed by scott
give it a try for the craic, it's a good riff! Go on the Whores!Everton Everton Everton!

Knackor!!!!

intro:

   guitar 1.
 e|--0------0----|--0-0----0----|--0-0----0----|--0-0---------|
 b|--0------0----|--0-0----0----|--0-0----0----|--0-0---------|
 g|--1------1/---|--4-4----4/---|--6-6----6/---|--8-8---------|
 d|--2------2/---|--5-5----5/---|--7-7----7/---|--9-9---------|
 a|--2------2/---|--5-5----5/---|--7-7----7/---|--9-9---------|
 e|--0------0/---|--0-0----0/---|--0-0----0/---|--0-0---------|
    Knackor!        Knackor!        Knackor!      ..........

guitar 1.
    solo
 e|----------------------------------------------------------------------|
 b|----------------------------------------------------------------------|
 g|----------------------------------------------------------------------|
 d|-------------------------------------------------------------------7\-|
 a|---------5h7p5-------------5h7p5-5-------5h7p5-------------5h7p5---7\-|
 e|----5h7--------7p5h7---5h7-----------5h7-------7p5h7---5h7---------7\-|

  main riff
 e|--0---0-0---------------0-0---0----|
 b|--0---0-0---------------2-2---2----|
 g|--1---1-1--------5-5----2-2---2----| x8
 d|--2---2-2---5-5--5-5----2-2---2----|
 a|--2---2-2---5-5--3-3----0-0---0----|
 e|--0---0-0---3-3--------------------|

   verse

 e|--xxxx---xxxx---------0-0---0----|
 b|--xxxx---xxxx---------2-2---2----|
 g|--1111---xxxx--5-5----2-2---2----|  x4
 d|--2222---5555--5-5----2-2---2----|
 a|--2222---5555--3-3----0-0---0----|
 e|--xxxx---3333--------------------|

 e|--0---0-0---------------0-0---0----|
 b|--0---0-0---------------2-2---2----|
 g|--1---1-1--------5-5----2-2---2----| x4
 d|--2---2-2---5-5--5-5----2-2---2----|
 a|--2---2-2---5-5--3-3----0-0---0----|
 e|--0---0-0---3-3--------------------|

   chorus
 e|--0---0-0---------------0-0---0----|
 b|--0---0-0---------------2-2---2----|
 g|--1---1-1--------5-5----2-2---2----| x4
 d|--2---2-2---5-5--5-5----2-2---2----|
 a|--2---2-2---5-5--3-3----0-0---0----|
 e|--0---0-0---3-3--------------------|
         KNACKOR!!!!


   / = SLIDE UP
   \ = SLIDE DOWN
   h = hammer on
   p = pull off
   x = palm mute


Thats about it enjoy!
Tap to rate this tab
# A B C D E F G H I J K L M N O P Q R S T U V W X Y Z