Song name
# A B C D E F G H I J K L M N O P Q R S T U V W X Y Z

Misc Unsigned Bands - Witnesses Of Change - Break Free tab

www.witnessesofchange.moonfruit.com

Artist: Witnesses of Change
Song: Break Free

Intro-Drums

Verse 1:

e------------------------------------------------------------------------|
b------------------------------------------------------------------------|
g---12------------8----10------------------------------------------------|
D---12------------8----10----------x12-----------------------------------|
A---10------------6-----8------------------------------------------------|
D---10------------6-----8------------------------------------------------|


Chorus:

e------------------------------------------------------------------------|
b------------------------------------------------------------------------|
g---12----8----10--------in the middle, drums----------------------------|
D---12----8----10----------x8--------------------------------------------|
A---10----6-----8--------------------------------------------------------|
D---10----6-----8--------------------------------------------------------|

Verse 2:

e------------------------------------------------------------------------|
b------------------------------------------------------------------------|
g---12------------8----10------------------------------------------------|
D---12------------8----10----------x12-----------------------------------|
A---10------------6-----8------------------------------------------------|
D---10------------6-----8------------------------------------------------|

Chorus:

e------------------------------------------------------------------------|
b------------------------------------------------------------------------|
g---12----8----10--------in the middle, drums----------------------------|
D---12----8----10----------x8--------------------------------------------|
A---10----6-----8--------------------------------------------------------|
D---10----6-----8--------------------------------------------------------|

Bridge:

e------------------------------------------------------------------------|
b------------------------------------------------------------------------|
g------------------------------------------------------------------------|
D----55---1-111---00----3----0-3-0---------------------------------------|
A----55---1-111---00----3----0-3-0---------------------------------------|
D----55---1-111---00----3----0-3-0---------------------------------------|

e------------------------------------------------------------------------|
b------------------------------------------------------------------------|
g------------------------------------------------------------------------|
D----55---1-111---00----3----0-3-0-3-0-----------------------------------|
A----55---1-111---00----3----0-3-0-3-0-----------------------------------|
D----55---1-111---00----3----0-3-0-3-0-----------------------------------|

Chorus:

e------------------------------------------------------------------------|
b------------------------------------------------------------------------|
g---12----8----10--------in the middle, drums----------------------------|
D---12----8----10----------x8--------------------------------------------|
A---10----6-----8--------------------------------------------------------|
D---10----6-----8--------------------------------------------------------|
Tap to rate this tab
# A B C D E F G H I J K L M N O P Q R S T U V W X Y Z