Song name
# A B C D E F G H I J K L M N O P Q R S T U V W X Y Z

Misc Unsigned Bands - A Simple Disaster - We Thought You Should Know tab

#----------------------------------PLEASE NOTE---------------------------------#
#This file is the author's own work and represents their interpretation of the #
#song. You may only use this file for private study, scholarship, or research. #
#------------------------------------------------------------------------------##

                          WE THOUGHT YOU SHOULD KNOW...
                        As recorded by A Simple Disaster
                         (From the 2006 EP HATED NATION)

Words by Zephyr Goza

Music by Zephyr Goza And Wylie Kuhn
Arranged by Zephyr Goza And Wylie Kuhn
Transcribed by Zephyr Goza And Wylie Kuhn

Gtr I (E A D G B E) - 'Zephyr'
Gtr II (E A D G B E) - 'Wylie'

 Verse
  Q=150
 4/4
  Gtr I
|---------------------------------------------------------------------------|
|---------------------------------------------------------------------------|
|-5-5-5-5---------8-8-8-8-------------5-5-5-5---------8-8-8-8---------------|
|-5-5-5-5-6-6-6-6-8-8-8-8--8--8--8--8-5-5-5-5-6-6-6-6-8-8-8-8--8--8--8--8---|
|-3-3-3-3-6-6-6-6-6-6-6-6--8--8--8--8-3-3-3-3-6-6-6-6-6-6-6-6--8--8--8--8---|
|---------4-4-4-4----------6--6--6--6---------4-4-4-4----------6--6--6--6---|
|
| Gtr II
|---------------------------------------------------------------------------|
|---------------------------------------------------------------------------|
|-5-5-5-5---------8-8-8-8-10-10-10-10-5-5-5-5---------8-8-8-8-10-10-10-10---|
|-x-x-x-x-6-6-6-6-x-x-x-x--x--x--x--x-x-x-x-x-6-6-6-6-x-x-x-x--x--x--x--x---|
|-3-3-3-3-x-x-x-x-6-6-6-6--8--8--8--8-3-3-3-3-x-x-x-x-6-6-6-6--8--8--8--8---|
|---------4-4-4-4-----------------------------4-4-4-4-----------------------|


|----------------------------------------------------------------------------|
|----------------------------------------------------------------------------|
|-5-5-5-5---------8-8-8-8-------------5-5-5-5---------8-8-8-8----------------|
|-5-5-5-5-6-6-6-6-8-8-8-8--8--8--8--8-5-5-5-5-6-6-6-6-8-8-8-8--8--8--8--8----|
|-3-3-3-3-6-6-6-6-6-6-6-6--8--8--8--8-3-3-3-3-6-6-6-6-6-6-6-6--8--8--8--8----|
|---------4-4-4-4----------6--6--6--6---------4-4-4-4----------6--6--6--6----|
|
|----------------------------------------------------------------------------|
|----------------------------------------------------------------------------|
|-5-5-5-5---------8-8-8-8-10-10-10-10-5-5-5-5---------8-8-8-8-10-10-10-10----|
|-x-x-x-x-6-6-6-6-x-x-x-x--x--x--x--x-x-x-x-x-6-6-6-6-x-x-x-x--x--x--x--x----|
|-3-3-3-3-x-x-x-x-6-6-6-6--8--8--8--8-3-3-3-3-x-x-x-x-6-6-6-6--8--8--8--8----|
|---------4-4-4-4-----------------------------4-4-4-4------------------------|


 Pre-Chorus
        ~~           ~~            ~~           ~~
|----3--4---4--6--8--6----6--6--6-------6------------|
|----------------------------------6-------6-4--3----|
|-5--------------------8-----------------------------|
|-5-------6------------8-------------8---------------|
|-3-------6------------6-------------8---------------|
|---------4--------------------------6---------------|
|
|       ~~           ~~            ~~           ~~
|---11-11---8-11-13-11---15-11-15------11------------|
|---------------------------------15------11-8-11----|
|-5--------------------8-----------------------------|
|-5-------6------------8-------------8---------------|
|-3-------6------------6-------------8---------------|
|---------4--------------------------6---------------|


 Chorus
|--------------------------------------------------------------------|
|--------------------------------------------------------------------|
|-5-5-5-5---------8-8-8-8---------5-5-5-5---------8-8-8-8------------|
|-5-5-5-5-6-6-6-6-8-8-8-8-8-8-8-8-5-5-5-5-6-6-6-6-8-8-8-8-8-8-8-8----|
|-3-3-3-3-6-6-6-6-6-6-6-6-8-8-8-8-3-3-3-3-6-6-6-6-6-6-6-6-8-8-8-8----|
|---------4-4-4-4---------6-6-6-6---------4-4-4-4---------6-6-6-6----|
|
|-----------------------------8-8-----------------------------8-8----|
|-8-8-6-6-8-8-6-6-8-8-6-6-8-8-----8-8-6-6-8-8-6-6-8-8-6-6-8-8--------|
|--------------------------------------------------------------------|
|--------------------------------------------------------------------|
|--------------------------------------------------------------------|
|--------------------------------------------------------------------|


|-----------------|-----------------|-----------------|-----------------|
|-----------------|-----------------|-----------------|-----------------|
|-5-5-5-5---------|-8-8-8-8---------|-5-5-5-5---------|-8-8-8-8---------|
|-5-5-5-5-6-6-6-6-|-8-8-8-8-8-8-8-8-|-5-5-5-5-6-6-6-6-|-8-8-8-8-8-8-8-8-|
|-3-3-3-3-6-6-6-6-|-6-6-6-6-8-8-8-8-|-3-3-3-3-6-6-6-6-|-6-6-6-6-8-8-8-8-|
|---------4-4-4-4-|---------6-6-6-6-|---------4-4-4-4-|---------6-6-6-6-|
|
|-----------------|-------------8-8-|-----------------|-------------8-8-|
|-8-8-6-6-8-8-6-6-|-8-8-6-6-8-8-----|-8-8-6-6-8-8-6-6-|-8-8-6-6-8-8-----|
|-----------------|-----------------|-----------------|-----------------|
|-----------------|-----------------|-----------------|-----------------|
|-----------------|-----------------|-----------------|-----------------|
|-----------------|-----------------|-----------------|-----------------|


 Verse
|----------------------------------------------------------------------------|
|----------------------------------------------------------------------------|
|-5-5-5-5---------8-8-8-8-------------5-5-5-5---------8-8-8-8----------------|
|-5-5-5-5-6-6-6-6-8-8-8-8--8--8--8--8-5-5-5-5-6-6-6-6-8-8-8-8--8--8--8--8----|
|-3-3-3-3-6-6-6-6-6-6-6-6--8--8--8--8-3-3-3-3-6-6-6-6-6-6-6-6--8--8--8--8----|
|---------4-4-4-4----------6--6--6--6---------4-4-4-4----------6--6--6--6----|
|
|----------------------------------------------------------------------------|
|----------------------------------------------------------------------------|
|-5-5-5-5---------8-8-8-8-10-10-10-10-5-5-5-5---------8-8-8-8-10-10-10-10----|
|-x-x-x-x-6-6-6-6-x-x-x-x--x--x--x--x-x-x-x-x-6-6-6-6-x-x-x-x--x--x--x--x----|
|-3-3-3-3-x-x-x-x-6-6-6-6--8--8--8--8-3-3-3-3-x-x-x-x-6-6-6-6--8--8--8--8----|
|---------4-4-4-4-----------------------------4-4-4-4------------------------|


|----------------------------------------------------------------------------|
|----------------------------------------------------------------------------|
|-5-5-5-5---------8-8-8-8-------------5-5-5-5---------8-8-8-8----------------|
|-5-5-5-5-6-6-6-6-8-8-8-8--8--8--8--8-5-5-5-5-6-6-6-6-8-8-8-8--8--8--8--8----|
|-3-3-3-3-6-6-6-6-6-6-6-6--8--8--8--8-3-3-3-3-6-6-6-6-6-6-6-6--8--8--8--8----|
|---------4-4-4-4----------6--6--6--6---------4-4-4-4----------6--6--6--6----|
|
|----------------------------------------------------------------------------|
|----------------------------------------------------------------------------|
|-5-5-5-5---------8-8-8-8-10-10-10-10-5-5-5-5---------8-8-8-8-10-10-10-10----|
|-x-x-x-x-6-6-6-6-x-x-x-x--x--x--x--x-x-x-x-x-6-6-6-6-x-x-x-x--x--x--x--x----|
|-3-3-3-3-x-x-x-x-6-6-6-6--8--8--8--8-3-3-3-3-x-x-x-x-6-6-6-6--8--8--8--8----|
|---------4-4-4-4-----------------------------4-4-4-4------------------------|


 Pre-Chorus
        ~~           ~~            ~~            ~~
|----3--4---4--6--8--6----6--6--6-------6-------------|
|----------------------------------6-------6-4---3----|
|-5--------------------8------------------------------|
|-5-------6------------8-------------8----------------|
|-3-------6------------6-------------8----------------|
|---------4--------------------------6----------------|
|
|       ~~           ~~            ~~            ~~
|---11-11---8-11-13-11---15-11-15------11-------------|
|---------------------------------15------11-8--11----|
|-5--------------------8------------------------------|
|-5-------6------------8-------------8----------------|
|-3-------6------------6-------------8----------------|
|---------4--------------------------6----------------|


 Guitar Solo
|------------------------------------------------------------------------------------------|
|------------------------------------------------------------------------------------------|
|-5-5-5-5----------8--8--8--8--------------5--5--5--5--------------8--8--8--8--------------|
|-5-5-5-5-6-6-6-6--8--8--8--8--8--8--8--8--5--5--5--5--6--6--6--6--8--8--8--8--8--8-8-8----|
|-3-3-3-3-6-6-6-6--6--6--6--6--8--8--8--8--3--3--3--3--6--6--6--6--6--6--6--6--8--8-8-8----|
|---------4-4-4-4--------------6--6--6--6--------------4--4--4--4--------------6--6-6-6----|
|
|             ~                ~~                ~~                         ~~
|-8-6--------------------------------------------------------------------------------------|
|-----8-6----------------------------------------------------------------------------------|
|---------8-7------------------------------------------------------------------------------|
|-------------8------------13-15-13-13-12-13-12-13-12-------12-13-12-13-12-13-12-13--------|
|-----------------------15----------------------------15-15--------------------------------|
|-----------------15-15--------------------------------------------------------------------|


|-------------------------------------------------------------------------------------------------|
|-------------------------------------------------------------------------------------------------|
|-5-5-5-5---------8--8--8--8--------------5--5--5--5--------------8--8--8--8----------------------|
|-5-5-5-5-6-6-6-6-8--8--8--8--8--8--8--8--5--5--5--5--6--6--6--6--8--8--8--8--8--8--8--8----------|
|-3-3-3-3-6-6-6-6-6--6--6--6--8--8--8--8--3--3--3--3--6--6--6--6--6--6--6--6--8--8--8--8----------|
|---------4-4-4-4-------------6--6--6--6--------------4--4--4--4--------------6--6--6--6----------|
|
|                 ~                                   ~~ TP TP TP TP TP TP TP TP TP TP TP TP TP TP
|-8-8-6-------------------------------------------------------------------------------------------|
|-------8-8-6-------------------------------------------------------------------------------------|
|-------------8-7---------------------------------------------------------------------------------|
|-----------------8----------13-15-12-13-12-13-12-------12-13-12-13-12-13-12-13-12-13-12-13-12-13-|
|-------------------------15----------------------15-15-------------------------------------------|
|-------------------15-15-------------------------------------------------------------------------|


 Chorus
|-----------------|-----------------|-----------------|-----------------|
|-----------------|-----------------|-----------------|-----------------|
|-5-5-5-5---------|-8-8-8-8---------|-5-5-5-5---------|-8-8-8-8---------|
|-5-5-5-5-6-6-6-6-|-8-8-8-8-8-8-8-8-|-5-5-5-5-6-6-6-6-|-8-8-8-8-8-8-8-8-|
|-3-3-3-3-6-6-6-6-|-6-6-6-6-8-8-8-8-|-3-3-3-3-6-6-6-6-|-6-6-6-6-8-8-8-8-|
|---------4-4-4-4-|---------6-6-6-6-|---------4-4-4-4-|---------6-6-6-6-|
|
|-----------------|-------------8-8-|-----------------|-------------8-8-|
|-8-8-6-6-8-8-6-6-|-8-8-6-6-8-8-----|-8-8-6-6-8-8-6-6-|-8-8-6-6-8-8-----|
|-----------------|-----------------|-----------------|-----------------|
|-----------------|-----------------|-----------------|-----------------|
|-----------------|-----------------|-----------------|-----------------|
|-----------------|-----------------|-----------------|-----------------|


|-----------------|-----------------|-----------------|-----------------|
|-----------------|-----------------|-----------------|-----------------|
|-5-5-5-5---------|-8-8-8-8---------|-5-5-5-5---------|-8-8-8-8---------|
|-5-5-5-5-6-6-6-6-|-8-8-8-8-8-8-8-8-|-5-5-5-5-6-6-6-6-|-8-8-8-8-8-8-8-8-|
|-3-3-3-3-6-6-6-6-|-6-6-6-6-8-8-8-8-|-3-3-3-3-6-6-6-6-|-6-6-6-6-8-8-8-8-|
|---------4-4-4-4-|---------6-6-6-6-|---------4-4-4-4-|---------6-6-6-6-|
|
|-----------------|-------------8-8-|-----------------|-------------8-8-|
|-8-8-6-6-8-8-6-6-|-8-8-6-6-8-8-----|-8-8-6-6-8-8-6-6-|-8-8-6-6-8-8-----|
|-----------------|-----------------|-----------------|-----------------|
|-----------------|-----------------|-----------------|-----------------|
|-----------------|-----------------|-----------------|-----------------|
|-----------------|-----------------|-----------------|-----------------|


 Outro
|--------------------------------------------------------------------|
|--------------------------------------------------------------------|
|-5-5-5-5---------8-8-8-8---------5-5-5-5---------8-8-8-8------------|
|-5-5-5-5-6-6-6-6-8-8-8-8-8-8-8-8-5-5-5-5-6-6-6-6-8-8-8-8-8-8-8-8----|
|-3-3-3-3-6-6-6-6-6-6-6-6-8-8-8-8-3-3-3-3-6-6-6-6-6-6-6-6-8-8-8-8----|
|---------4-4-4-4---------6-6-6-6---------4-4-4-4---------6-6-6-6----|


 Outro
|-----------------|-----------------|-----------------|-----------------|
|-----------------|-----------------|-----------------|-----------------|
|-5-5-5-5---------|-8-8-8-8---------|-5-5-5-5---------|-8-8-8-8---------|
|-5-5-5-5-6-6-6-6-|-8-8-8-8-8-8-8-8-|-5-5-5-5-6-6-6-6-|-8-8-8-8-8-8-8-8-|
|-3-3-3-3-6-6-6-6-|-6-6-6-6-8-8-8-8-|-3-3-3-3-6-6-6-6-|-6-6-6-6-8-8-8-8-|
|---------4-4-4-4-|---------6-6-6-6-|---------4-4-4-4-|---------6-6-6-6-|


|-----------------|-----------------|-----------------|-----------------|
|-----------------|-----------------|-----------------|-----------------|
|-5-5-5-5---------|-8-8-8-8---------|-5-5-5-5---------|-8-8-8-8---------|
|-5-5-5-5-6-6-6-6-|-8-8-8-8-8-8-8-8-|-5-5-5-5-6-6-6-6-|-8-8-8-8-8-8-8-8-|
|-3-3-3-3-6-6-6-6-|-6-6-6-6-8-8-8-8-|-3-3-3-3-6-6-6-6-|-6-6-6-6-8-8-8-8-|
|---------4-4-4-4-|---------6-6-6-6-|---------4-4-4-4-|---------6-6-6-6-|


|-----------------|-----------------|-----------------|-----------------|
|-----------------|-----------------|-----------------|-----------------|
|-5-5-5-5---------|-8-8-8-8---------|-5-5-5-5---------|-8-8-8-8---------|
|-5-5-5-5-6-6-6-6-|-8-8-8-8-8-8-8-8-|-5-5-5-5-6-6-6-6-|-8-8-8-8-8-8-8-8-|
|-3-3-3-3-6-6-6-6-|-6-6-6-6-8-8-8-8-|-3-3-3-3-6-6-6-6-|-6-6-6-6-8-8-8-8-|
|---------4-4-4-4-|---------6-6-6-6-|---------4-4-4-4-|---------6-6-6-6-|


|-----------------|-----------------|-----------------|-----------------|
|-----------------|-----------------|-----------------|-----------------|
|-5-5-5-5---------|-8-8-8-8---------|-5-5-5-5---------|-8-8-8-8---------|
|-5-5-5-5-6-6-6-6-|-8-8-8-8-8-8-8-8-|-5-5-5-5-6-6-6-6-|-8-8-8-8-8-8-8-8-|
|-3-3-3-3-6-6-6-6-|-6-6-6-6-8-8-8-8-|-3-3-3-3-6-6-6-6-|-6-6-6-6-8-8-8-8-|
|---------4-4-4-4-|---------6-6-6-6-|---------4-4-4-4-|---------6-6-6-6-|


Tablature Legend
----------------
 h   - hammer-on
 p   - pull-off
 b   - bend
 pb  - pre-bend
 r   - bend release (if no number after the r, then release immediately)
 /\  - slide into or out of (from/to "nowhere")
 s   - legato slide
 S   - shift slide
  - natural harmonic
[n]  - artificial harmonic
n(n) - tapped harmonic
 ~   - vibrato
 tr  - trill
 T   - tap
 TP  - trem. picking
 PM  - palm muting
\n/  - tremolo bar dip; n = amount to dip
 \n  - tremolo bar down
 n/  - tremolo bar up
/n\  - tremolo bar inverted dip
 =   - hold bend; also acts as connecting device for hammers/pulls
 <>  - volume swell (louder/softer)
 x   - on rhythm slash represents muted slash
 o   - on rhythm slash represents single note slash

Misc Legend
-----------
 |  - bar
||  - double bar
||o - repeat start
o|| - repeat end
*|  - double bar (ending)
 :  - bar (freetime)
 $  - Segno
 &  - Coda
Tempo markers -  = BPM(8/16=s8/s16), where s8 = swing 8ths, s16 = swing 16ths


***************************************************************************************
* Generated using Power Tab Editor by Brad Larsen - http://powertab.guitarnetwork.org *
***************************************************************************************
Tap to rate this tab
# A B C D E F G H I J K L M N O P Q R S T U V W X Y Z