Guitaretab - guitar tabs
Song name
# A B C D E F G H I J K L M N O P Q R S T U V W X Y Z

Misc Unsigned Bands - Spearbrave - Searching tab

SpearBrave  Searching Intro Guitar one and Two
Drop D Tuning - (guitar 1) Standard Tuning  (guitar two)

Palm Muted (Guitar 1)
E|---------------------------------------------------------------------|
B|---------------------------------------------------------------------|
G|---------------------------------------------------------------------|
D|------0------0------------0------0-------------- 0------ 0------0----|
A|----2------2------2------5------5--------5------9------9------9------|
D|--2------2------2------5------5--------5------9------9------9--------|

E|-------------------------|
B|-------------------------|
G|-------------------------|
D|-------------------------|
A|----12---12---11---11--9-|
D|-------0--------0--------|

[ Tab from: http://www.guitaretab.com/m/misc-unsigned-bands/83856.html ]
Palm Muted (guitar 1)
E|---------------------------------------------------------------------|
B|---------------------------------------------------------------------|
G|---------------------------------------------------------------------|
D|------0------0------------0------0-------------- 0------ 0------0----|
A|----2------2------2------5------5--------5------9------9------9------|
D|--2------2------2------5------5--------5------9------9------9--------|

E|-------------------------|
B|-------------------------|
G|-------------------------|
D|-------------------------|
A|----12---12---11---11--9-|
D|-------0--------0--------|


Guitar 2 (plays with guitar one)
E|----------------------------------------------------|
B|----------------------------------------------------|
G|--------9-9---------------9-9-------------------9-9-|
D|------0------------------0--------------------0-----|
A|----------------------------------------------------|
E|----------------------------------------------------|

E|-----------------------------------|
B|-----------------------------------|
G|---14-14-14---12-12-12---11-11-11--|
D|-----------------------------------|
A|-----------------------------------|
E|-----------------------------------|
Related for Spearbrave - Searching tab