Guitaretab - guitar tabs
Song name
# A B C D E F G H I J K L M N O P Q R S T U V W X Y Z

Misc Unsigned Bands - 5 Degrees Kelvin - Remember tab

Another song from the immense young 5 degrees kelvin band.

intro:
guitar 1&2
----------------------------------------|
----------------------------------------|
----------------------------------------|
---99-77-55-7777-99-77-55-7777----------| repeat 4x
---99-77-55-7777-99-77-55-7777----------|
---77-55-33-5555-77-55-33-5555----------|

bridge:
guitar 1:
---------------------|
---------------------|
--7777799------------|
--7777799------------|
--5555577------------|

verse:

guitar 1&2:
--7-7-7-7-7-7--5-5-5-5-5-5--3-3-3-3-3-3--5-5-5-5-5-5|
--7-7-7-7-7-7--5-5-5-5-5-5--3-3-3-3-3-3--5-5-5-5-5-5|
--8-8-8-8-9-8--6-6-6-6-7-6--4-4-4-4-5-4--6-6-6-6-7-6|
--9-9-9-9-7-9--7-7-7-7-5-7--5-5-5-5-3-5--7-7-7-7-5-7|  repeat 6x
--9-9-9-9-9-9--7-7-7-7-7-7--5-5-5-5-5-5--7-7-7-7-7-7|
--7-7-7-7-7-7--5-5-5-5-5-5--3-3-3-3-3-3--5-5-5-5-5-5|
[ Tab from: http://www.guitaretab.com/m/misc-unsigned-bands/83857.html ]
chorus:
guitar 1&2
--------------------------------------------------|
--------------------------------------------------|
--------------------------------------------------|
--9-9-9-9xx12-12-12-12-7-7-7-7-9-9-9-9-9----------| repeat 3x
--9-9-9-9xx12-12-12-12-7-7-7-7-9-9-9-9-9----------|
--7-7-7-7xx10-10-10-10-5-5-5-5-7-7-7-7-7----------|

verse:

guitar 1&2:
--7-7-7-7-7-7--5-5-5-5-5-5--3-3-3-3-3-3--5-5-5-5-5-5|
--7-7-7-7-7-7--5-5-5-5-5-5--3-3-3-3-3-3--5-5-5-5-5-5|
--8-8-8-8-9-8--6-6-6-6-7-6--4-4-4-4-5-4--6-6-6-6-7-6|
--9-9-9-9-7-9--7-7-7-7-5-7--5-5-5-5-3-5--7-7-7-7-5-7|  repeat 6x
--9-9-9-9-9-9--7-7-7-7-7-7--5-5-5-5-5-5--7-7-7-7-7-7|
--7-7-7-7-7-7--5-5-5-5-5-5--3-3-3-3-3-3--5-5-5-5-5-5|
chorus:
guitar 1&2
--------------------------------------------------|
--------------------------------------------------|
--------------------------------------------------|
--9-9-9-9xx12-12-12-12-7-7-7-7-9-9-9-9-9----------| repeat 3x
--9-9-9-9xx12-12-12-12-7-7-7-7-9-9-9-9-9----------|
--7-7-7-7xx10-10-10-10-5-5-5-5-7-7-7-7-7----------|

ending:
5-3-7-5-|
5-3-7-5-|
6-4-8-6-|
7-5-9-7-|
7-5-9-7-|
5-3-7-5-|
Related for 5 Degrees Kelvin - Remember tab
Advertisement will be closed in 10 seconds